TURUL

(/) Slide Up  (\) Slide Down  (h) Hammer On  (p) Pull Off  (b) Bend (r) Release (v) Vibrato


E|---------------------------|--|--
B|---------------------------|--|--
G|---------------------------|--|--
D|---------------------------|--|--
A|---------------------------|--|--
E|--0--12--6--5--6--3--1--1--|--|--



E|-----------------------------|--|-----------------------------------|--|--
B|-----------------------------|--|-----------------------------------|--|--
G|-----------------------------|--|-----------------------------------|--|--
D|-----------------------------|--|-----------------------------------|--|--
A|--------------------------5--|--|--------------------------------5--|--|--
E|--6--5--6--3--0--1--1--0-----|--|--6--5--6--3--0--1--1--1--1--0-----|--|--



E|--------------------------------|--|--
B|--------------------------------|--|--
G|--------------------------------|--|--
D|--------------------------------|--|--
A|--------------1--1--1--1--1--5--|--|--
E|--6--5--6--3--------------------|--|--



E|---------------------------|--------|--|--
B|---------------------------|--------|--|--
G|---------------------------|--------|--|--
D|---------------------------|--------|--|--
A|---------------------------|--------|--|--
E|--0--12--6--5--6--3--1--1--|--1--1--|--|--
http://www.guitartabcreator.com
Guitar Tab Creator is intended to store guitar tab created through the tool. It currently does not support in-line text editing. Any text you place in here will be lost. If you need to comment on your tab, please use the "Tab Notes" section located below.