MOUNTIE (Db Ab Db Gb)

(/) Slide Up  (\) Slide Down  (h) Hammer On  (p) Pull Off  (b) Bend (r) Release (v) Vibrato


E|--------------------------------------------------|--|--------------|--|-----------------------
B|--------------------------------------------------|--|--------------|--|-----------------------
G|--------------------------------------------------|--|--------------|--|-----------------------
D|--------------3-----------------------------------|--|--------------|--|-----------------------
A|--------3--5-----5--3--------------------------6--|--|--------3--3--|--|--------------3--5-----
E|--0--0-----------------6--5--5--6--5--3--1--0-----|--|--1--1--------|--|--0--0--0--0-----------



E|--------------|-----------------------------------|--|--
B|--------------|-----------------------------------|--|--
G|--------------|-----------------------------------|--|--
D|--6--5--3-----|--------------------3-----6--5--3--|--|--
A|-----------5--|--------------3--5-----5-----------|--|--
E|--------------|--0--0--0--0-----------------------|--|--



E|--------|--------|-----|--------|-----|--------------------------------------|--
B|--------|--------|-----|--------|-----|--------------------------------------|--
G|--------|--------|-----|--------|-----|--------------------------------------|--
D|--------|--------|-----|--------|-----|--------------------------------------|--
A|--------|--------|-----|--------|-----|--------------------------------------|--
E|--0--0--|--0--0--|--3--|--0--0--|--0--|--6--3--3--3--6--2--2--2--6--1--1--1--|--



E|-----------------------------------|--------------------------|--
B|-----------------------------------|--------------------------|--
G|-----------------------------------|--------------------------|--
D|-----------------------------------|--------------------------|--
A|--------3--5--3--2--0--2--3--2--0--|--------3--5--3--2--0-----|--
E|--0--0-----------------------------|--0--0-----------------3--|--



E|--
B|--
G|--
D|--
A|--
E|--



E|-----------------------------------|--------------------------------------|--
B|-----------------------------------|--------------------------------------|--
G|-----------------------------------|--------------------------------------|--
D|-----------------------------------|--------------------------------------|--
A|--------3--5--3--2--0--2--3--2--0--|--------------------------------------|--
E|--0--0-----------------------------|--6--3--3--3--6--2--2--2--6--1--1--1--|--



E|--------------------------------|--------------------------------|--|--
B|--------------------------------|--------------------------------|--|--
G|--------------------------------|--------------------------------|--|--
D|--------------------------------|--------------------------------|--|--
A|--------------------------------|--------------------------------|--|--
E|--0--0--5--7--8--8--8--8--7--5--|--0--0--3--5--6--6--6--6--6--6--|--|--



E|-----------------------------|--|--
B|-----------------------------|--|--
G|-----------------------------|--|--
D|-----------------------------|--|--
A|-----------------------------|--|--
E|--0--0--3--5--6--0--0--0--0--|--|--



E|-----------------------------|--------------|--
B|-----------------------------|--------------|--
G|-----------------------------|--------------|--
D|--------------3--------------|--------------|--
A|-----5--3--5-----5-----------|--------------|--
E|--0-----------------6--5--5--|--3--5--0--1--|--



E|--|--|----------------|--|--
B|--|--|----------------|--|--
G|--|--|----------------|--|--
D|--|--|----------------|--|--
A|--|--|----------------|--|--
E|--|--|--1--1--10--10--|--|--
http://www.guitartabcreator.com
Guitar Tab Creator is intended to store guitar tab created through the tool. It currently does not support in-line text editing. Any text you place in here will be lost. If you need to comment on your tab, please use the "Tab Notes" section located below.