CASSE-TETE

(/) Slide Up  (\) Slide Down  (h) Hammer On  (p) Pull Off  (b) Bend (r) Release (v) Vibrato


E|--------|--|--------------------------|--|--
B|--------|--|--------------------------|--|--
G|--------|--|--------------------------|--|--
D|--------|--|--------------------------|--|--
A|--------|--|-------------------12h14--|--|--
E|--7--9--|--|--9h12--12--12/14---------|--|--



E|---------------------|-------------------|----------------------|-----------------|--
B|---------------------|-------------------|----------------------|-----------------|--
G|---------------------|-------------------|----------------------|-----------------|--
D|---------------------|-------------------|----------------------|-----------------|--
A|---------------------|-------------------|----------------------|-----5--7--5--4--|--
E|--7h9--9--9--9--9h0--|--7h9--9--9--0--0--|--7h9--9--9--9--9--0--|--9--------------|--



E|---------------------|---------------|--
B|---------------------|---------------|--
G|---------------------|---------------|--
D|---------------------|---------------|--
A|---------------------|-------5h7--5--|--
E|--7h9--9--9--9--9h0--|--7h9----------|--



E|---------------------|--------------------------|--|--
B|---------------------|--------------------------|--|--
G|---------------------|--------------------------|--|--
D|---------------------|--------------------------|--|--
A|---------------------|--------------------------|--|--
E|--7h9--9--9--9--9h0--|--9h12--12--9--12/14--14--|--|--



E|-----------|----------|-------------|----------|-----------|----------|--------------|-----
B|-----------|----------|-------------|----------|-----------|----------|--------------|-----
G|-----------|----------|-------------|----------|-----------|----------|--------------|-----
D|-----------|----------|-------------|----------|-----------|----------|--------------|-----
A|-----------|----------|-------------|----------|-----------|----------|--------------|-----
E|--9--------|----------|--5--7--7----|----------|--4--------|----------|--2--4--0--0--|-----



E|-----------|--|--
B|-----------|--|--
G|-----------|--|--
D|-----------|--|--
A|-----------|--|--
E|--2--4--7--|--|--



E|-----------|----------|-------------|----------|-----------|----------|-----------|----------
B|-----------|----------|-------------|----------|-----------|----------|-----------|----------
G|-----------|----------|-------------|----------|-----------|----------|-----------|----------
D|-----------|----------|-------------|----------|-----------|----------|-----------|----------
A|-----------|----------|-------------|----------|-----------|----------|-----------|----------
E|--9--------|----------|--5--7--7----|----------|--4--------|----------|--2--------|--7-------



E|-----------|--------|--------|--|------------------------------|--|--
B|-----------|--------|--------|--|------------------------------|--|--
G|-----------|--------|--------|--|------------------------------|--|--
D|-----------|--------|--------|--|--4/7--7--7--7-----7h9--9--9--|--|--
A|-----------|--------|--------|--|----------------9-------------|--|--
E|--7--------|--4--4--|--------|--|------------------------------|--|--



E|---------------------------------------|--|--
B|---------------------------------------|--|--
G|---------------------------------------|--|--
D|-------------------7h9--9--9--9--7-----|--|--
A|------------------------------------9--|--|--
E|--9----9--9--9--9----------------------|--|--



E|--------------------------|-------------------|--
B|--------------------------|-------------------|--
G|--------------------------|-------------------|--
D|--------------------------|-------------------|--
A|--------------------------|-------------------|--
E|--9/12----12--12--12--12--|--12/14----14--14--|--



E|-------------------------------------------------------|--|--
B|-------------------------------------------------------|--|--
G|-------------------------------------------------------|--|--
D|-------------------------------------------------------|--|--
A|------------------------------------------12h14----14--|--|--
E|--9/12----12--12--12--12----14--14--14-----------------|--|--
http://www.guitartabcreator.com
Guitar Tab Creator is intended to store guitar tab created through the tool. It currently does not support in-line text editing. Any text you place in here will be lost. If you need to comment on your tab, please use the "Tab Notes" section located below.