Something greater

(/) Slide Up  (\) Slide Down  (h) Hammer On  (p) Pull Off  (b) Bend (r) Release (v) Vibrato


E|--------------------------
B|--------------------------
G|--------6--------4-----2--
D|-----6--------4-----2-----
A|--4--------2--------------
E|--------------------------



E|-----------------------------------------------------
B|-----------------------------------------------------
G|--------9--------9--------9--------6--------4-----2--
D|-----9--------9--------9--------6--------4-----2-----
A|--7--------6--------0--------4--------2--------------
E|-----------------------------------------------------



E|--------------------------------
B|--------------------------------
G|-----6-----8-----9-----4-----2--
D|--------------------------2-----
A|--4-----6-----7-----2-----------
E|--------------------------------
http://www.guitartabcreator.com
Guitar Tab Creator is intended to store guitar tab created through the tool. It currently does not support in-line text editing. Any text you place in here will be lost. If you need to comment on your tab, please use the "Tab Notes" section located below.