Satellites

(/) Slide Up  (\) Slide Down  (h) Hammer On  (p) Pull Off  (b) Bend (r) Release (v) Vibrato


E|-------------------------------
B|-------------------------------
G|--------1----------9--------6--
D|-----2---------11--------7-----
A|--2--------11---------7--------
E|-------------------------------



E|-------------------------------
B|-------------------------------
G|----------9--------4--------6--
D|------11--------6--------7-----
A|--11---------6--------7--------
E|-------------------------------



E|-------------------------------------------------------
B|-------------------------------------------------------
G|--------1--------4-----2----------9--------4--------6--
D|-----2--------4-----2---------11--------6--------7-----
A|--2--------2--------------11---------6--------7--------
E|-------------------------------------------------------



E|----------------------------------------------------------------------------
B|----------------------------------------------------------------------------
G|--------6--------8--------6--------6--------8----------9--------8--------6---
D|-----7--------9--------7--------7--------9---------11--------9--------7----
A|--7--------9--------7--------7--------9--------11---------9--------7--------
E|----------------------------------------------------------------------------
http://www.guitartabcreator.com
Guitar Tab Creator is intended to store guitar tab created through the tool. It currently does not support in-line text editing. Any text you place in here will be lost. If you need to comment on your tab, please use the "Tab Notes" section located below.