Memories

(/) Slide Up  (\) Slide Down  (h) Hammer On  (p) Pull Off  (b) Bend (r) Release (v) Vibrato
Verse 1 & 2:
E|-----------------------------------------------------------------------------------------------
B|-----------------------------------------------------------------------------------------------
G|--------7--------7-----------------------6-----7-----2-----4-----------------------------------
D|-----7--------7-----------7--------5-----------------------------2--------4--------5--------7--
A|--5--------------------7--------5-----------------------------2--------4--------5--------7-----
E|-----------7--------5--------3--------5-----7-----2-----3-----------2--------3--------5--------


chorus
E|-----------------------------------
B|-----3-----3-----------------------
G|--2-----2-----------7-----6-----4--
D|-----------------------------------
A|--------------4--------------------
E|-----------------7-----5-----3-----


bridge
E|--------------------------------------------------
B|--------------------------------------------------
G|-----7-----7-----2-----4-----6-----7-----2-----4--
D|--------------------------------------------------
A|--------------------------------------------------
E|--7-----7-----2-----3-----5-----7-----2-----3-----


instrumental
E|--------------------------------------
B|--------------------------------------
G|-----7-----6-----2-----4-----2-----4--
D|--------------------------------------
A|--------------------------------------
E|--7-----5-----2-----3-----2-----3-----
http://www.guitartabcreator.com
Guitar Tab Creator is intended to store guitar tab created through the tool. It currently does not support in-line text editing. Any text you place in here will be lost. If you need to comment on your tab, please use the "Tab Notes" section located below.