Buckaroo Part 1

(/) Slide Up  (\) Slide Down  (h) Hammer On  (p) Pull Off  (b) Bend (r) Release (v) Vibrato

E|--2--------0--2--3--2--0-----|--7--------5--7--8--7--5-----
B|--3-----3-----------------3--|--8-----8-----------------8--
G|--2--2-----------------------|--7--7-----------------------
D|-----------------------------|-----------------------------
A|-----------------------------|-----------------------------
E|-----------------------------|-----------------------------



E|--2--------0--2--3--2--0-----|----------------------------
B|--3-----3-----------------3--|--2--2--0--2--0--3--2--0--2\
G|--2--2-----------------------|--2-------------------------
D|-----------------------------|--2-------------------------
A|-----------------------------|----------------------------
E|-----------------------------|----------------------------



E|--2--------0--2--3--2--0-----|--7--------5--7--8--7--5-----
B|--3-----3-----------------3--|--8-----8-----------------8--
G|--2--2-----------------------|--7--7-----------------------
D|-----------------------------|-----------------------------
A|-----------------------------|-----------------------------
E|-----------------------------|-----------------------------



E|--2-----0--2--3--2--|--------------|--2--3--------------2--3-----
B|--3--3--------------|--2--2--0--2--|--3-----2--2--0--2--3-----2--
G|--2-----------------|--2-----------|--2-----2-----------2-----2--
D|--------------------|--2-----------|--------2-----------------2--
A|--------------------|--------------|-----2-----------------2-----
E|--------------------|--------------|-----3-----------------3-----
http://www.guitartabcreator.com
Guitar Tab Creator is intended to store guitar tab created through the tool. It currently does not support in-line text editing. Any text you place in here will be lost. If you need to comment on your tab, please use the "Tab Notes" section located below.