Keytar Hero

(/) Slide Up  (\) Slide Down  (h) Hammer On  (p) Pull Off  (b) Bend (r) Release (v) Vibrato
E|--12--10h12--12--10/12--12v--12--------8-------------------------------------------------------
B|---------------------------------10p8-------/10--10-----------/10--10--------------------------
G|-----------------------------------------------------9-----------------9-----------------------
D|--------------------------------------------------------12--10------------12--10----7h9--9-----
A|-----------------------------------------------------------------------------------------------
E|-----------------------------------------------------------------------------------------------



E|-------------------------------------------------------------------------------------------
B|---------------------------------------3-------3--5h6p5p3-----3v-------------8-------------
G|--------------------------------2h4h5-----4h5--------------5------------7h9-----10p9p7-----
D|--5h7--------------5--5\0--2h5------------------------------------9h10---------------------
A|----------5h7p5h7--------------------------------------------------------------------------
E|-------8-----------------------------------------------------------------------------------



E|------------------------------------------------------------------------------------------------
B|------------------------------------8-----------------------------------------------------------
G|------9p7----------7-------------9-----10p9p7------9p7------7-----------------------------------
D|--10---------10p9-----10p9p7h10----------------10-------10-----10p9p7---------------------------
A|-------------------------------------------------------------------------10p8p7------7----------
E|---------------------------------------------------------------------------------10-----10p8p7--



E|-------------------------------------------------------------------------------------------------
B|-------------------------------------------------------------------------------------------------
G|-------------------------------------------------------------------------------------------------
D|-----------------------7------------------------------------------7h9--7-----------------7h9--7--
A|--------7h8h10p7h8h10-----10p8p7--7h8p7--7\0--7--7--7--7v--7v--7----------7--9h10--9--9----------
E|--8h10-------------------------------------------------------------------------------------------



E|----------------------------------------------------------------------------------
B|-----------8----------------------------------------------------------------------
G|--9-----9-----9p7h9h10p9----7h9p7h9--------7h9p7h9--------7h9p7h9--------7h9p7h9--
D|-----7-------------------------------7h10-----------7h10-----------7h10-----------
A|----------------------------------------------------------------------------------
E|----------------------------------------------------------------------------------



E|----------------------------------------------------------------------------12---------------------
B|-----------------------------10-----8------------------12------13p12h15p13------15p13p12h13h15-----
G|--------7h9p7h9--------7--9------9-----9p7--14p12--14------14--------------------------------------
D|--7h10-----------7h10------------------------------------------------------------------------------
A|---------------------------------------------------------------------------------------------------
E|---------------------------------------------------------------------------------------------------



E|--12h15p13p12-------------------------------------------------------------------------------
B|---------------15p13p12------13p12------13p12-----------------------------------------------
G|-------------------------14---------14---------14-------------------------------------------
D|---------------------------------------------------15p14p12---------------------------------
A|-------------------------------------------------------------15--14----14p12h14--3--0/12----
E|--------------------------------------------------------------------------------------------



E|--5-----------------------------------------------------5------------------------------------------
B|-----8p5----------8p5------------------5-------5--10\5-----8p5-------------8p5---------------------
G|----------7p5----------7p5--------5h7-----5h7-------------------7--7p5----------7p5--------5h7-----
D|---------------7------------7--7----------------------------------------7------------7--7----------
A|---------------------------------------------------------------------------------------------------
E|---------------------------------------------------------------------------------------------------



E|-------------------5----------------------------------------------------------------------
B|--5-------5--10\5-----8p5----------8p5----------------------------------------------------
G|-----5h7-------------------7p5----------7p5--------5--------------------------------------
D|--------------------------------7------------7--7-----7--7--5h7--7--5h7--7--9p7--7--7-----
A|------------------------------------------------------------------------------------------
E|------------------------------------------------------------------------------------------



E|--------------------------------------------------------------------------------------------------
B|--------------------------------------------------------------------------------------------------
G|-------------9-----------------9---------------9-----------------9-----------------9h12-----------
D|--10p9p7h10-----12p10p9h10h12-----12p10p9--12-----12p10p9h10h12-----12p10p9h10h12--------10p9-----
A|--------------------------------------------------------------------------------------------------
E|--------------------------------------------------------------------------------------------------



E|----------------------------------------------------------------------------------------
B|----------------------------------------------------------------------------------------
G|-----------------12------------------12------------------12------------------12---------
D|--10--12--14h15------15p14p12h14h15------15p14p12h14h15------15p14p12h14h15------15-----
A|----------------------------------------------------------------------------------------
E|----------------------------------------------------------------------------------------



E|----------------------------------------------------------------------------------------------
B|----------------------------------------------------------------------------------------------
G|------------12-------------------------------------------------------------------------12-----
D|--12h14h15------15p14p12---------12------------12h14h15--12h14p12------------12h14h15---------
A|--------------------------15p14------15p14h15----------------------15p14h15-------------------
E|----------------------------------------------------------------------------------------------



E|----------------------------------------------------------------------------------------
B|----------------------------------------------------------------------------------------
G|----------------------------------------------------------------------------------------
D|--15p14p12---------12--------------------------------------------7h9h10p9p7-------------
A|------------15p14------15p14p12--10p7---------------7h10p7h8h10--------------10p8p7-----
E|---------------------------------------10p8p7h8h10--------------------------------------



E|-------
B|-------
G|-------
D|-------
A|--5/7--
E|-------
http://www.guitartabcreator.com
Guitar Tab Creator is intended to store guitar tab created through the tool. It currently does not support in-line text editing. Any text you place in here will be lost. If you need to comment on your tab, please use the "Tab Notes" section located below.