Overworld (Legend of Zelda)

(/) Slide Up  (\) Slide Down  (h) Hammer On  (p) Pull Off  (b) Bend (r) Release (v) Vibrato

E|-------------------------------------------------------
B|-------------------------------------------------------
G|--3----3--3--3--3--3----1--3----3--3--3--3--3----1--3--
D|-------------------------------------------------------
A|-------------------------------------------------------
E|-------------------------------------------------------



E|-------------------------------------------------------------
B|-------------------------------------------------------------
G|--3--3--3--3--3--------------------------------------3-------
D|-----------------3--3--3----3--3--3----3--3--3--3---------3--
A|-------------------------------------------------------------
E|-------------------------------------------------------------



E|-----------------1----1--1--2--4--6----6--6--4--2--4--2--1--
B|--------1--3--4---------------------------------------------
G|--3--3------------------------------------------------------
D|------------------------------------------------------------
A|------------------------------------------------------------
E|------------------------------------------------------------



E|--1------------------------------------------------3--1--
B|-----4--4h6h7----6--4--2--2h4h6----4--2--1--1h3h5--------
G|---------------------------------------------------------
D|---------------------------------------------------------
A|---------------------------------------------------------
E|---------------------------------------------------------



E|------------------------------------------
B|------------------------------------------
G|------------------------------------3-----
D|--3--3--3----3--3--3----3--3--3--3-----3--
A|------------------------------------------
E|------------------------------------------



E|-----------------1----1--1--2--4--6----9--8--5------------6--5-------------6--5-----
B|--------1--3--4-----------------------------------6--7----------6----6--7--------6--
G|--3--3------------------------------------------------------------------------------
D|------------------------------------------------------------------------------------
A|------------------------------------------------------------------------------------
E|------------------------------------------------------------------------------------



E|----------2--1-------------------0----3--1------------------------------------------
B|--3--4----------2-------1--1--3-----------------------------------------------------
G|---------------------3--------------------------------------------------------3-----
D|--------------------------------------------3--3--3----3--3--3----3--3--3--3-----3--
A|------------------------------------------------------------------------------------
E|------------------------------------------------------------------------------------
http://www.guitartabcreator.com
Guitar Tab Creator is intended to store guitar tab created through the tool. It currently does not support in-line text editing. Any text you place in here will be lost. If you need to comment on your tab, please use the "Tab Notes" section located below.