Indiana Jones Theme

(/) Slide Up  (\) Slide Down  (h) Hammer On  (p) Pull Off  (b) Bend (r) Release (v) Vibrato


E|--------------------------------------------------
B|--------------------------------6--------------5--
G|-----------5-----------------4--------4--5--7-----
D|--------5--------------5--7--------7--------------
A|--7--8--------5--7--8-----------------------------
E|--------------------------------------------------



E|--------------------------------------------------
B|-----------------5--6--------5--3-----6--5--3-----
G|-----------5--7-----------------------------------
D|--------5--------------5--5--------5-----------5--
A|--7--8--------------------------------------------
E|--------------------------------------------------



E|--1-----------1-----------1-----------------------------------------3--
B|-----------------------------4--4--4-----------4-----------4--4--2--3--
G|-----3--3--3-----3--3--3--------------1--1--1-----1--1--1-----------0--
D|--------------------------------------------------------------------0--
A|-----------------------------------------------------------------------
E|-----------------------------------------------------------------------
http://www.guitartabcreator.com
Guitar Tab Creator is intended to store guitar tab created through the tool. It currently does not support in-line text editing. Any text you place in here will be lost. If you need to comment on your tab, please use the "Tab Notes" section located below.