Gerudo Valley (Legend of Zelda) Guitar 1-melody

(/) Slide Up  (\) Slide Down  (h) Hammer On  (p) Pull Off  (b) Bend (r) Release (v) Vibrato


E|-----------------5-------4--7--9--
B|--------------7-------6-----------
G|--------4--7----------------------
D|-----6----------------------------
A|--4-------------------------------
E|----------------------------------



E|-----2--4--5-------2--4--5-------2--4--5-------2--4--5--
B|--2-------------2-------------3-------------3-----------
G|--------------------------------------------------------
D|--------------------------------------------------------
A|--------------------------------------------------------
E|--------------------------------------------------------



E|-----0--2--4-------0--2--4----2--4--2--1--
B|--0-------------0-------------------------
G|------------------------------------------
D|------------------------------------------
A|------------------------------------------
E|------------------------------------------



E|-----2--4--5-------2--4--5-------2--4--5-------2--4--5--
B|--2-------------2-------------3-------------3-----------
G|--------------------------------------------------------
D|--------------------------------------------------------
A|--------------------------------------------------------
E|--------------------------------------------------------



E|-----0--2--4-------0--2--4----2--4--2--1--
B|--0-------------0-------------------------
G|------------------------------------------
D|------------------------------------------
A|------------------------------------------
E|------------------------------------------



E|-----5--4--2--------0h2p0------------4--2--0------------------
B|--2-----------2--5---------3------0-----------3--2--3h5p3--2--
G|--------------------------------------------------------------
D|--------------------------------------------------------------
A|--------------------------------------------------------------
E|--------------------------------------------------------------



E|-----5--4--2--------0h2p0------------------------------------
B|--2-----------2--5---------3--------------7--5------3--2-----
G|--------------------------------2--4-------------------------
D|-------------------------------------------------------------
A|-------------------------------------------------------------
E|-------------------------------------------------------------



E|--5--4--5--4--------------------------4--2--4--0---------------------
B|--------------2--5----3p2--3----------------------3--2----3h5--3--2--
G|---------------------------------------------------------------------
D|---------------------------------------------------------------------
A|---------------------------------------------------------------------
E|---------------------------------------------------------------------



E|------------------------------------------------------
B|-----------2-------------2-----------3-------------3--
G|-----1--2----------1--2--------1--2----------1--2-----
D|--4-------------4-----------4-------------4-----------
A|------------------------------------------------------
E|------------------------------------------------------



E|------------4--2------------
B|----------------------0--2--
G|--2--4----------------------
D|----------------------------
A|----------------------------
E|----------------------------



E|--5--4--5-------4--5--7--5--4--5--4--5--
B|-------------7--------------------------
G|----------------------------------------
D|----------------------------------------
A|----------------------------------------
E|----------------------------------------



E|--4--2--4----------4--5--4-----4--------
B|-------------5--7-----------7-----7--6--
G|----------------------------------------
D|----------------------------------------
A|----------------------------------------
E|----------------------------------------



E|--5--4--5-------4--5--7--5--4--5--4--5------7--5--7--
B|-------------7---------------------------------------
G|-----------------------------------------------------
D|-----------------------------------------------------
A|-----------------------------------------------------
E|-----------------------------------------------------



E|--4--5--7--9--10--12--9--10--9-----
B|-----------------------------------
G|-----------------------------------
D|-----------------------------------
A|-----------------------------------
E|-----------------------------------



E|--------------------------------------------------------
B|--------------------------------------------------------
G|-----2--1--2-------2--1--2-------2--1--2-------2--1--2--
D|--4-------------4-------------0-------------0-----------
A|--------------------------------------------------------
E|--------------------------------------------------------



E|-----------------------------------------
B|------------------------------3h5--3--2--
G|-----4--3--4-------4--3--4---------------
D|--2-------------2------------------------
A|-----------------------------------------
E|-----------------------------------------
http://www.guitartabcreator.com
Guitar Tab Creator is intended to store guitar tab created through the tool. It currently does not support in-line text editing. Any text you place in here will be lost. If you need to comment on your tab, please use the "Tab Notes" section located below.