Little Sadie Lead (capo 2)

(/) Slide Up  (\) Slide Down  (h) Hammer On  (p) Pull Off  (b) Bend (r) Release (v) Vibrato

E|----------------------------------------------------------------------------------------|-----
B|-----------------0--1h3p1---------------------------------------------------------------|-----
G|--0--1--2--1--2------------3p2---------------------------0--2p0-----0-------------------|-----
D|--------------------------------3--2-----0-------0--2h3----------2-----1p0--------------|-----
A|--------------------------------------3-----2h3-----------------------------3--0-----0--|-----
E|----------------------------------------------------------------------------------3-----|-----



E|-----------------------------------------------------------|------------------------1--1--
B|-----------------------0--1h3p1-----1--0--------0-1--1--1--|--0-1--1--1-------------3--3--
G|-----------------0--2------------2--------2--0--0h2--2--2--|--0h2--2--2--1p0--------2--2--
D|-----------0--2--------------------------------------------|------------------3--0--------
A|--0--2--3--------------------------------------------------|------------------------------
E|-----------------------------------------------------------|------------------------------
http://www.guitartabcreator.com
Guitar Tab Creator is intended to store guitar tab created through the tool. It currently does not support in-line text editing. Any text you place in here will be lost. If you need to comment on your tab, please use the "Tab Notes" section located below.