Bird in a House (intro)

(/) Slide Up  (\) Slide Down  (h) Hammer On  (p) Pull Off  (b) Bend (r) Release (v) Vibrato
E|--2--3--5--2---------------------------------------------------------------
B|--------------3------------------------------------------------------------
G|-----------------4--2h4\5/4--0--2---2--4--5--4--2--5--4--2--0--4--2--------
D|---------------------------------------------------------------------------
A|---------------------------------------------------------------------------
E|---------------------------------------------------------------------------



E|------------------------------------------------------------------
B|------------------------------------------------------------------
G|--2--4--5--4--2--5--4--2--0--4--2--0------------------------------
D|--------------------------------------4--2--0-----------0--------
A|-----------------------------------------------2--3--4-----------
E|------------------------------------------------------------------
http://www.guitartabcreator.com
Guitar Tab Creator is intended to store guitar tab created through the tool. It currently does not support in-line text editing. Any text you place in here will be lost. If you need to comment on your tab, please use the "Tab Notes" section located below.