Serene Dream

CREATED BY: Nick Dorshimer DATE: 12/2/11


(/) Slide Up (\) Slide Down (h) Hammer On (p) Pull Off (b) Bend (r) Release (v) Vibrato
E|------------------------------------------------------------------
B|------------------------------------------------------------------
G|------------------------------------------------------------------
D|-----6-----6-----6-----6-----6------------------------------------
A|--4-----4-----4-----4-----4--------6-----6-------6/7-----7-----7--
E|--------------------------------4-----4-----4/5-------5-----5-----



E|----------------------------------
B|----------------------------------
G|-5-5-5-5-5----5-5-5-5-5-----5-5-5-
D|-5-5-5-5-5----5-5-5-5-5-----5-5-5-
A|-3-3-3-3-3----3-3-3-3-3-----3-3-3-
E|----------------------------------



E|--------------------------
B|--------------------------
G|------6-6-6-6-----6-6-6-6-
D|-5----6-6-6-6-----6-6-6-6-
A|-5----4-4-4-4-----4-4-4-4-
E|-3------------------------



E|-----------------------------------------------
B|--8----8--8-------6--------7----7--7-----------
G|--8----8--8--6h7-----------7----7--7-----------
D|--6----6--6----------------5----5--5-----------
A|-----------------------------------------------
E|-----------------------------------------------
Guitar Tab Creator is intended to store guitar tab created through the tool. It currently does not support in-line text editing. Any text you place in here will be lost. If you need to comment on your tab, please use the "Tab Notes" section located below.