Wonder

(/) Slide Up  (\) Slide Down  (h) Hammer On  (p) Pull Off  (b) Bend (r) Release (v) Vibrato


E|-----0--0--0-----0-----0--0--0-----0-----0--0-----0--0-----0--0--0-----0-----0--0-----
B|-----0--0--0-----0-----0--0--0-----0-----0--0-----0--0-----0--0--0-----0-----0--0-----
G|--------------------------------------------------------------------------------------
D|--------------------------------------------------------------------------------------
A|--------------------------------------3--------5--------------------------------------
E|--3-----------3-----0-----------0-----------------------3-----------3-----3--------3--



E|-----------------------------------------------------------------------------
B|-----0--0-----0--0------0--0--0------0------0--0-----0--0-----0--0--0-----0--
G|-----0--0-----0--0------0--0--0------0------0--0-----0--0-----0--0--0-----0--
D|-----------------------------------------------------------------------------
A|-----------------------------------------------------------------------------
E|--3--------7--------10-----------10-----10--------7--------3-----------3-----



E|--------------------------------------------------------------------------
B|-----0--0--0-----0-----0--0--0-----0-----0--0--0-----0-----0--0--0-----0--
G|-----0--0--0-----0-----0--0--0-----0-----0--0--0-----0-----0--0--0-----0--
D|--------------------------------------------------------------------------
A|--------------------------------------------------------------------------
E|--8-----------8-----8-----------8-----3-----------3-----3-----------3-----



E|-------------------------------------------------------------------------------
B|-----0--0--0-----0-----0--0--0-----0-----0--0--0-----0-----0--0--0-------------
G|-----0--0--0-----0-----0--0--0-----0-----0--0--0-----0-----0--0--0-------------
D|-------------------------------------------------------------------------------
A|-------------------------------------------------------------------------------
E|--8-----------8-----8-----------8-----0-----------0-----5-----------5/8--------
http://www.guitartabcreator.com
Guitar Tab Creator is intended to store guitar tab created through the tool. It currently does not support in-line text editing. Any text you place in here will be lost. If you need to comment on your tab, please use the "Tab Notes" section located below.