Untitled 1

(/) Slide Up  (\) Slide Down  (h) Hammer On  (p) Pull Off  (b) Bend (r) Release (v) Vibrato

E|-------------------------------------------------------------------------------------------
B|-------------------------------------------------------------------------------------------
G|------------0----------0-----------0----------0------------0----------0-----------0--------
D|---------0-----0----0-----0-----0-----0----0------------0-----0----0-----0-----0-----0-----
A|-------------------------------------------------------------------------------------------
E|--0h2\3----------------------3-------------------0h2\3----------------------3-----------3--



E|--------------------------------------------------------------------------------------------
B|--------------------------------------------------------------------------------------------
G|--------0----------0----------0----------0----------7----------7-----------0----------0-----
D|-----0-----0----0----------0-----0----0----------0-----0----0-----0-----0-----0----0-----0--
A|----------------------------------------------0---------------------------------------------
E|--3-------------------3\7--------------------------------------------3----------------------



E|------------------------------------------------------------------------------------------
B|------------------------------------------------------------------------------------------
G|--------0----------0----------0----------0---------------0----0----0-----0-----0----0-----
D|-----0-----0----0----------0-----0----0------------------0----0----0-----0-----0----0-----
A|--------------------------------------------7---------------------------------------------
E|--3-------------------3\7------------------------2----3---------------3-----3----------3--



E|------------------------------------------------------------------------------------
B|------------------------------------------------------------------------------------
G|-----0----0----0----------0----0----0-----0-----7----7----7-----7-----0----0-----0--
D|-----0----0----0----------0----0----0-----0-----0----0----0-----0-----0----0-----0--
A|---------------------------------------------0---------------0----------------------
E|--3---------------3\7--7---------------7---------------------------3----------3-----



E|-------------------------------------------------------------------------------------------
B|-------------------------------------------------------------------------------------------
G|-----0----0----0----------0----0----0-----0---------------0----0----0-----0-----0----0-----
D|-----0----0----0----------0----0----0-----0---------------0----0----0-----0-----0----0-----
A|---------------------------------------------7---------------------------------------------
E|--3---------------3\7--7---------------7----------2----3---------------3-----3----------3--



E|-----------------------------------------------------------------------------------
B|-----------------------------------------------------------------------------------
G|--0----0----0------0----0----0---------0----0----0-----0-----0----0----0-----0-----
D|--0----0----0------0----0----0---------0----0----0-----0-----0----0----0-----0-----
A|-----------------------------------------------------------------------------------
E|--3----2----3------3----2----3------3---------------3-----3---------------3--------



E|--------------------------------------
B|--------------------------------------
G|-----0----0----0-----0-----0----0-----
D|-----0----0----0-----0-----0----0-----
A|--------------------------------------
E|--3---------------3-----3----------3--
http://www.guitartabcreator.com
Guitar Tab Creator is intended to store guitar tab created through the tool. It currently does not support in-line text editing. Any text you place in here will be lost. If you need to comment on your tab, please use the "Tab Notes" section located below.