Vera

(/) Slide Up  (\) Slide Down  (h) Hammer On  (p) Pull Off  (b) Bend (r) Release (v) Vibrato

E|--------------------------------------
B|--------------------------------------
G|--------0--------0--------0--------0--
D|-----6--------5--------6--------6-----
A|--8--------3--------4--------6--------
E|--------------------------------------



E|--------------------------------------------------------------------------------------------------
B|--------------------------------------------------------------------------------------------------
G|--------0--------0--------------0--------0--------------0--------0--------------0--------0--------
D|-----6--------6--------------5--------5--------5-----6--------6--------------6--------6-----------
A|--8--------8--------8--6--3--------3--------3-----4--------4--------4--4--6--------6--------6--6--
E|--------------------------------------------------------------------------------------------------



Guitar Tab Creator is intended to store guitar tab created through the tool. It currently does not support in-line text editing. Any text you place in here will be lost. If you need to comment on your tab, please use the "Tab Notes" section located below.