toprocksong

(/) Slide Up  (\) Slide Down  (h) Hammer On  (p) Pull Off  (b) Bend (r) Release (v) Vibrato
E|----------------------------------------------------------------------**1
B|----------------------------------------------------------------------
G|----------------------------------------------------------------------
D|----------------------------------------------------------------------
A|----------------------------------------------------------------------
E|--0--0--0--0--1--0--0--0--0--0--0--0--1--1--1--1/3--3--3--3--3--3--3--



E|------------------------------------------------------------------**2
B|------------------------------------------------------------------
G|------------------------------------------------------------------
D|------------------------------------------------------------------
A|------------------------------------------------------------------
E|--5--5--5--5--5--5--5--5--5--5--5\3--3--3--3\1--1--1--1--1--1--1--



E|--------------------------------------------**3
B|--------------------------------------------
G|--------------------------------------------
D|--------7--------7--------3-----------5-----
A|-----5--------5--------1-----1-----3-----3--
E|--0--------0--------1-----------3-----------



E|--------------------------------------------**4
B|--------------------------------------------
G|--------------------------------------------
D|--------7--------7--------5-----------3-----
A|-----5--------5--------3-----3-----1-----1--
E|--5--------5--------3-----------1-----------



E|----------------------------------------------------------------------**5
B|----------------------------------------------------------------------
G|--------------3--3--3--3--3--3--3-------------------------------------
D|--------------3--3--3--3--3--3--3-------------------------------------
A|--------------1--1--1--1--1--1--1-------------------------------------
E|--0--0--0--0--1--1--1--1--1--1--1--5--5--5--5\1--1--3--1--4--3--1--3--



E|----------------------------------------------------------------------**6
B|----------------------------------------------------------------------
G|--------------3--3--3--3--3--3--3-------------------------------------
D|--------------3--3--3--3--3--3--3-------------------------------------
A|--------------1--1--1--1--1--1--1-------------------------------------
E|--0--0--0--0--1--1--1--1--1--1--1--3--3--3--3/5--5--7--5--8--7--5--7--



E|-------------------------------------------------------------------**7
B|-------------------------------------------------------------------
G|--------------3--3--3--3--3--3--3----------------------------------
D|--------------3--3--3--3--3--3--3----------------------------------
A|--------------1--1--1--1--1--1--1----------------------------------
E|--0--0--0--0--1--1--1--1--1--1--1--3--3--3--3/5--5--5--5--5--5--5--



E|----------------------------------------------------------------**8
B|----------------------------------------------------------------
G|----------------------------------------------------------------
D|----------------------------------------------------------------
A|----------------------------------------------------------------
E|--0--1--0--3--4--3--------------------------5--5--5\3--1--3--1--



E|----------------------------------------------------------**9
B|----------------------------------------------------------
G|----------------------------------------------------------
D|----------------------------------------------------------
A|----------------------------------------------------------
E|--0--0--1--0--0--3--4--3--------------5--5--5\3--1--3--1--



E|---------------------------------------**10
B|---------------------------------------
G|---------------------------------------
D|---------------------------------------
A|---------------------------------------
E|----0--1--0--0--1--0--0--1--0----------
http://www.guitartabcreator.com

song pattern: intro **1

song pattern:
intro
**1 x3
**2 x1

as long as the intro is played

verse 1
**3 x3
**4 x1

as long as the verse 1 is played

chorus
**5 x2
**6 x1
**7 x1
**1 x3
**2 x1

verse 2
**3 x3
**4 x1

chorus
**5 x2
**6 x1
**7 x1
**1 x3
**2 x1

Breakdown

**8 (first part x3 then last part x1)
**9 (played same as **8)

**10

last chorus
**1 x3
**2 x1
**5 x2
**6 x1
**7 x1

Guitar Tab Creator is intended to store guitar tab created through the tool. It currently does not support in-line text editing. Any text you place in here will be lost. If you need to comment on your tab, please use the "Tab Notes" section located below.