Here We Go Again Paramore transposed up 2 half steps

(/) Slide Up  (\) Slide Down  (h) Hammer On  (p) Pull Off  (b) Bend (r) Release (v) Vibrato
E|-----------------------------------------------
B|-----------------------------------------------
G|-----------------------------------------------
D|--11----11-------------------------------------
A|------------11----11/13--9----8----8--8--9--8--
E|-----------------------------------------------



E|--------------------------------------------------------
B|--------------------------------------------------------
G|--------------------------------------------------------
D|--11----11----------------------------------------------
A|------------11----11/13--9----8-------------------------
E|-----------------------------------9--9--11--11--9--11--



E|------------------------------------------------------------------
B|--11------12------14------14------14------14------14------14------
G|------11------11------11------11------11------11------11------11--
D|------------------------------------------------------------------
A|------------------------------------------------------------------
E|------------------------------------------------------------------



E|--11--14--13--11--6--7--
B|------------------------
G|------------------------
D|------------------------
A|------------------------
E|------------------------



E|--14--13--11--6--7--
B|--------------------
G|--------------------
D|--------------------
A|--------------------
E|--------------------
http://www.guitartabcreator.com
Guitar Tab Creator is intended to store guitar tab created through the tool. It currently does not support in-line text editing. Any text you place in here will be lost. If you need to comment on your tab, please use the "Tab Notes" section located below.