Devil's Advocate

(/) Slide Up  (\) Slide Down  (h) Hammer On  (p) Pull Off  (b) Bend (r) Release (v) Vibrato


E|----------------
B|----------------
G|----------------
D|--9--13--9--13--
A|--9--13--9--13--
E|--7--11--7--11--



E|--------------
B|--------------
G|--------------
D|--9--8--6--4--
A|--9--8--6--4--
E|--7--6--4--2--



E|-----
B|-----
G|-----
D|--4--
A|--4--
E|--2--



E|--------------
B|--------------
G|--------------
D|--8--8--9--9--
A|--8--8--9--9--
E|--6--6--7--7--



E|---------
B|---------
G|--10--8--
D|--11--9--
A|--9---7--
E|---------



E|-----------------
B|-----------------
G|-----2-----4--6--
D|--6--4--2--4--6--
A|--6--4--2--2--4--
E|--4--2--0--------



E|---------------
B|---------------
G|--8--8---------
D|--8--8--9--11--
A|--6--8--9--11--
E|-----6--7--9---



E|---------
B|---------
G|--10-----
D|--11--8--
A|--9---9--
E|------7--



E|-----------------
B|-----------------
G|--8--10--11--13--
D|--8--10--11--13--
A|--6--8---9---11--
E|-----------------



E|-----
B|-----
G|-----
D|--9--
A|--9--
E|--7--
http://www.guitartabcreator.com
Guitar Tab Creator is intended to store guitar tab created through the tool. It currently does not support in-line text editing. Any text you place in here will be lost. If you need to comment on your tab, please use the "Tab Notes" section located below.