Unknown Title

(/) Slide Up  (\) Slide Down  (h) Hammer On  (p) Pull Off  (b) Bend (r) Release (v) Vibrato

E|-------------------------------------------------------------------------------------------------
B|-------------------------------------------------------------------------------------------------
G|--------------------5--------------------7-9-9-9--------------------5-------------------7-9-9-9--
D|--7-7-7--x-x-x-x--5-5-5--7-7-7--x-x-x-x--7-9-9-9--7-7-7-x-x-x-x--5-5-5--7-7-7--x-x-x-x--7-9-9-9--
A|--7-7-7--x-x-x-x--5-3-5--7-7-7--x-x-x-x--5-7-7-7--7-7-7-x-x-x-x--5-3-5--7-7-7--x-x-x-x--5-7-7-7--
E|--5-5-5--x-x-x-x--3---3--5-5-5--x-x-x-x-----------5-5-5-x-x-x-x--3---3--5-5-5--x-x-x-x-----------

E|-------------------------------------------------------------------------------------------------
B|-------------------------------------------------------------------------------------------------
G|--------------------5--------------------7-9-9-9--------------------5-------------------7-9-9-9--
D|--7-7-7--x-x-x-x--5-5-5--7-7-7--x-x-x-x--7-9-9-9--7-7-7-x-x-x-x--5-5-5--7-7-7--x-x-x-x--7-9-9-9--
A|--7-7-7--x-x-x-x--5-3-5--7-7-7--x-x-x-x--5-7-7-7--7-7-7-x-x-x-x--5-3-5--7-7-7--x-x-x-x--5-7-7-7--
E|--5-5-5--x-x-x-x--3---3--5-5-5--x-x-x-x-----------5-5-5-x-x-x-x--3---3--5-5-5--x-x-x-x-----------

E|-----------------------------------------------------------------------------
B|-----------------------------------------------------------------------------
G|-----------------------------------------------------------------------------
D|--7-7--5----5----7-7--5----5----7-7--5----5----7-7--5----5----7-7--5--5-5-7--
A|--7-7--5--5---5--7-7--5--5---5--7-7--5--5---5--7-7--5--5---5--7-7--5--5-5-7--
E|--5-5--3---------5-5--3---------5-5--3---------5-5--3---------5-5--3--3-3-5--

E|--------------------------------------------------------------
B|--------------------------------------------------------------
G|--------------------------------------------------------------
D|--7-7-7------5-7----7-7-7--7-5------7-7-7------5-7----7-7-5---
A|--7-7-7--5-7-----5--7-7-7------7-5--7-7-7--5-7-----5--7-7-5---
E|--5-5-5-------------5-5-5-----------5-5-5-------------5-5-3---

E|--------------------------------------------------------------
B|--------------------------------------------------------------
G|--------------------------------------------------------------
D|--7-7-7------5-7----7-7-7--7-5------7-7-7------5-7----7-7-5---
A|--7-7-7--5-7-----5--7-7-7------7-5--7-7-7--5-7-----5--7-7-5---
E|--5-5-5-------------5-5-5-----------5-5-5-------------5-5-3---

E|--------------------------------------------------------------
B|--------------------------------------------------------------
G|--------------------------------------------------------------
D|--7-7-7------5-7----7-7-7--7-5------7-7-7------5-7----7-7-5---
A|--7-7-7--5-7-----5--7-7-7------7-5--7-7-7--5-7-----5--7-7-5---
E|--5-5-5-------------5-5-5-----------5-5-5-------------5-5-3---

E|--------------------------------------------------------------
B|--------------------------------------------------------------
G|--------------------------------------------------------------
D|--7-7-7------5-7----7-7-7--7-5------7-7-7------5-7----7-7-5---
A|--7-7-7--5-7-----5--7-7-7------7-5--7-7-7--5-7-----5--7-7-5---
E|--5-5-5-------------5-5-5-----------5-5-5-------------5-5-3---

E|-------------------------------------------------------------------------------------------------
B|-------------------------------------------------------------------------------------------------
G|--------------------5--------------------7-9-9-9--------------------5-------------------7-9-9-9--
D|--7-7-7--x-x-x-x--5-5-5--7-7-7--x-x-x-x--7-9-9-9--7-7-7-x-x-x-x--5-5-5--7-7-7--x-x-x-x--7-9-9-9--
A|--7-7-7--x-x-x-x--5-3-5--7-7-7--x-x-x-x--5-7-7-7--7-7-7-x-x-x-x--5-3-5--7-7-7--x-x-x-x--5-7-7-7--
E|--5-5-5--x-x-x-x--3---3--5-5-5--x-x-x-x-----------5-5-5-x-x-x-x--3---3--5-5-5--x-x-x-x-----------

E|-------------------------------------------------------------------------------------------------
B|-------------------------------------------------------------------------------------------------
G|--------------------5--------------------7-9-9-9--------------------5-------------------7-9-9-9--
D|--7-7-7--x-x-x-x--5-5-5--7-7-7--x-x-x-x--7-9-9-9--7-7-7-x-x-x-x--5-5-5--7-7-7--x-x-x-x--7-9-9-9--
A|--7-7-7--x-x-x-x--5-3-5--7-7-7--x-x-x-x--5-7-7-7--7-7-7-x-x-x-x--5-3-5--7-7-7--x-x-x-x--5-7-7-7--
E|--5-5-5--x-x-x-x--3---3--5-5-5--x-x-x-x-----------5-5-5-x-x-x-x--3---3--5-5-5--x-x-x-x-----------

E|-----------------------------------------------------------------------------
B|-----------------------------------------------------------------------------
G|-----------------------------------------------------------------------------
D|--7-7--5----5----7-7--5----5----7-7--5----5----7-7--5----5----7-7--5--5-5-7--
A|--7-7--5--5---5--7-7--5--5---5--7-7--5--5---5--7-7--5--5---5--7-7--5--5-5-7--
E|--5-5--3---------5-5--3---------5-5--3---------5-5--3---------5-5--3--3-3-5--

E|--------------------------------------------------------------
B|--------------------------------------------------------------
G|--------------------------------------------------------------
D|--7-7-7------5-7----7-7-7--7-5------7-7-7------5-7----7-7-5---
A|--7-7-7--5-7-----5--7-7-7------7-5--7-7-7--5-7-----5--7-7-5---
E|--5-5-5-------------5-5-5-----------5-5-5-------------5-5-3---

E|--------------------------------------------------------------
B|--------------------------------------------------------------
G|--------------------------------------------------------------
D|--7-7-7------5-7----7-7-7--7-5------7-7-7------5-7----7-7-5---
A|--7-7-7--5-7-----5--7-7-7------7-5--7-7-7--5-7-----5--7-7-5---
E|--5-5-5-------------5-5-5-----------5-5-5-------------5-5-3---

Solo:

E|--------------------------------------------------------------------------------------------
B|--------------------------------------------------------------------------------------------
G|--------------------------------------------------------------------------------------------
D|--------------------------------------------------------------------------------------------
A|--------------------------------------------------------------------------------------------
E|--------------------------------------------------------------------------------------------

E|--------------------------------------------------------------------------------------------
B|--------------------------------------------------------------------------------------------
G|--------------------------------------------------------------------------------------------
D|--------------------------------------------------------------------------------------------
A|--------------------------------------------------------------------------------------------
E|--------------------------------------------------------------------------------------------

E|--------------------------------------------------------------------------------------------
B|--------------------------------------------------------------------------------------------
G|--------------------------------------------------------------------------------------------
D|--------------------------------------------------------------------------------------------
A|--------------------------------------------------------------------------------------------
E|--------------------------------------------------------------------------------------------

E|--------------------------------------------------------------
B|--------------------------------------------------------------
G|--------------------------------------------------------------
D|--7-7-7------5-7----7-7-7--7-5------7-7-7------5-7----7-7-5---
A|--7-7-7--5-7-----5--7-7-7------7-5--7-7-7--5-7-----5--7-7-5---
E|--5-5-5-------------5-5-5-----------5-5-5-------------5-5-3---

E|--------------------------------------------------------------
B|--------------------------------------------------------------
G|--------------------------------------------------------------
D|--7-7-7------5-7----7-7-7--7-5------7-7-7------5-7----7-7-5---
A|--7-7-7--5-7-----5--7-7-7------7-5--7-7-7--5-7-----5--7-7-5---
E|--5-5-5-------------5-5-5-----------5-5-5-------------5-5-3---

E|-----------------------------------------------------------------------------
B|-----------------------------------------------------------------------------
G|-----------------------------------------------------------------------------
D|--7-7--5----5----7-7--5----5----7-7--5----5----7-7--5----5----7-7--5--5-5-7--
A|--7-7--5--5---5--7-7--5--5---5--7-7--5--5---5--7-7--5--5---5--7-7--5--5-5-7--
E|--5-5--3---------5-5--3---------5-5--3---------5-5--3---------5-5--3--3-3-5--

E|-------------------------------------------------------------------------------------------------
B|-------------------------------------------------------------------------------------------------
G|--------------------5--------------------7-9-9-9--------------------5-------------------7-9-9-9--
D|--7-7-7--x-x-x-x--5-5-5--7-7-7--x-x-x-x--7-9-9-9--7-7-7-x-x-x-x--5-5-5--7-7-7--x-x-x-x--7-9-9-9--
A|--7-7-7--x-x-x-x--5-3-5--7-7-7--x-x-x-x--5-7-7-7--7-7-7-x-x-x-x--5-3-5--7-7-7--x-x-x-x--5-7-7-7--
E|--5-5-5--x-x-x-x--3---3--5-5-5--x-x-x-x-----------5-5-5-x-x-x-x--3---3--5-5-5--x-x-x-x-----------

E|-------------------------------------------------------------------------------------------------
B|-------------------------------------------------------------------------------------------------
G|--------------------5--------------------7-9-9-9--------------------5-------------------7-9-9-9--
D|--7-7-7--x-x-x-x--5-5-5--7-7-7--x-x-x-x--7-9-9-9--7-7-7-x-x-x-x--5-5-5--7-7-7--x-x-x-x--7-9-9-9--
A|--7-7-7--x-x-x-x--5-3-5--7-7-7--x-x-x-x--5-7-7-7--7-7-7-x-x-x-x--5-3-5--7-7-7--x-x-x-x--5-7-7-7--
E|--5-5-5--x-x-x-x--3---3--5-5-5--x-x-x-x-----------5-5-5-x-x-x-x--3---3--5-5-5--x-x-x-x-----------

E|----------------------------------------------------------
B|----------------------------------------------------------
G|----------------------------------------------------------
D|--7-7--5--5-5-7-------7-7-5--5-5-7-------7-5-5--5-5-7-----
A|--7-7--5--5-5-7-------7-7-5--5-5-7-------7-5-5--5-5-7-----
E|--5-5--3--3-3-5-------5-5-3--3-3-5-------5-5-3--3-3-5-----
Guitar Tab Creator is intended to store guitar tab created through the tool. It currently does not support in-line text editing. Any text you place in here will be lost. If you need to comment on your tab, please use the "Tab Notes" section located below.