Undecided

(/)Slide Up (\)Slide Down (h)Hammer On (p)Pull Off (v)Vibrato

Tuning: D A D G A D


D|--0-----0-----0-----0-----0-----0-----0-----0-----0-----0-----0-----0---------
A|----0-----0-----0-----0-----0-----0-----0-----0-----0-----0-----0-----0-------
G|------2-----2-----2-----2-----2-----2-----2-----2-----2-----2-----2-----2-----
D|--0-----------------------0-----------------------0---------------------------
A|------------------------------------------------------------------------------
D|------------------------------------------------------------------------------

D|--0-----0-----0-----0-----0-----0-----0-----0-----0-----0-----0-----0---------
A|----0-----0-----0-----0-----0-----0-----0-----0-----0-----0-----0-----0-------
G|------2-----2-----2-----2-----2-----2-----2-----2-----2-----2-----2-----2-----
D|--0-----------------------0-----------------------0---------------------------
A|------------------------------------------------------------------------------
D|------------------------------------------------------------------------------

D|--0-----0-----0-----0-----0-----0-----0-----0-----0-----0-----0-----0---------
A|----0-----0-----0-----0-----0-----0-----0-----0-----0-----0-----0-----0-------
G|------2-----2-----2-----2-----2-----2-----2-----2-----2-----2-----2-----2-----
D|--0-----------------------0-----------------------0---------------------------
A|------------------------------------------------------------------------------
D|------------------------------------------------------------------------------

D|--0-----0-----0-----0-----0-----0-----0-----0-----0-----0-----0-----0---------
A|----0-----0-----0-----0-----0-----0-----0-----0-----0-----0-----0-----0-------
G|------2-----2-----2-----2-----2-----2-----2-----2-----2-----2-----2-----2-----
D|--0-----------------------0-----------------------0---------------------------
A|------------------------------------------------------------------------------
D|------------------------------------------------------------------------------

D|--12(Harmonic)-----
A|--12(Harmonic)-----
G|--12(Harmonic)-----
D|--12(Harmonic)-----
A|-------------------
D|-------------------

D|--------------------------------------------------------------------------------------------------
A|--------------------------------------------------------------------------------------------------
G|--0--2--5/7(v)--0--2--5/7--5-----5--7--5\2(v)-----5----------5--7/9--7--5-------------------------
D|------------------------------7----------------------7--5--7--------------7--5--7--9--7(v)--------
A|--------------------------------------------------------------------------------------------------
D|--------------------------------------------------------------------------------------------------

D|--------5(h)7(p)5(h)7(p)5(h)7(5)------------------------------------------------------------------
A|--5--8---------------------------7/8\7--5--5(h)7/8/10--8------------------------------------------
G|----------------------------------------------------------9--7\5--7/9--7--5--2--3--2--3--2--0--2--
D|--------------------------------------------------------------------------------------------------
A|--------------------------------------------------------------------------------------------------
D|--------------------------------------------------------------------------------------------------

D|--------------------------------------------------------------------------------------------------
A|--------------------------------------------------------------------------------------------------
G|--2---------2-------------------------------------------------------------------------------------
D|-----4/5/7-----4/5/7/--5-------------------------------0--4--5/7/9--7--5(v)-----------------------
A|--------------------------7--7/8--7--5--4--5--0--4--5------------------------0--4--5--0--4--5-----
D|--------------------------------------------------------------------------------------------------



D|--------------------------------------------------------------------------------------------------
A|--------------------------------------------------------------------------------------------------
G|--------------------------------------------------------------------------------------------------
D|--0--4--5/7(v)--0--4--5/7--5--4--0--4--5/7--5--4--0--4--5/7--0--4--5/7--5-4--0--4--5/7--5--4------
A|--------------------------------------------------------------------------------------------------
D|--------------------------------------------------------------------------------------------------

D|----------------------------------------------------------------------------------------
A|---------------------------------------------------------8--10--------------------------
G|-------------------------------------------------5--7/9--------9--7--5-----5--7(v)------
D|-------------------------------------------5--7-------------------------7---------------
A|--0--4--5(v)----0--4--5--0--4--5--0--4--5-----------------------------------------------
D|----------------------------------------------------------------------------------------

D|----------------------------------------------------------------------------------------
A|---------------------------------------------------------8--10--------------------------
G|-------------------------------------------------5--7/9--------9--7--5-----5--7(v)------
D|-------------------------------------------5--7-------------------------7---------------
A|--0--4--5(v)----0--4--5--0--4--5--0--4--5-----------------------------------------------
D|----------------------------------------------------------------------------------------

D|----------------------------------------------------------------------------------------
A|----------------------------------------------------------------------------------------
G|--7--5--2--3(p)2(h)3(p)2(h)3(p)2(h)3(p)2--0--2--3--2------------------------------------
D|----------------------------------------------------------------------------------------
A|----------------------------------------------------------------------------------------
D|----------------------------------------------------------------------------------------

D|---0-0-0-0-0---2-2-2-2-2---3-3-3-3-3---2-2-2-2-2---
A|---0-0-0-0-0---0-0-0-0-0---0-0-0-0-0---0-0-0-0-0---
G|---2-2-2-2-2---2-2-2-2-2---2-2-2-2-2---2-2-2-2-2---
D|---0-0-0-0-0---0-0-0-0-0---0-0-0-0-0---0-0-0-0-0---
A|---0-0-0-0-0---0-0-0-0-0---0-0-0-0-0---0-0-0-0-0---
D|---x-x-x-x-x---x-x-x-x-x---x-x-x-x-x---x-x-x-x-x---

D|---0-0-0-0-0---2-2-2-2-2---3-3-3-3-3---2-2-2-2-2---
A|---0-0-0-0-0---0-0-0-0-0---0-0-0-0-0---0-0-0-0-0---
D|---2-2-2-2-2---2-2-2-2-2---2-2-2-2-2---2-2-2-2-2---
D|---0-0-0-0-0---0-0-0-0-0---0-0-0-0-0---0-0-0-0-0---
A|---0-0-0-0-0---0-0-0-0-0---0-0-0-0-0---0-0-0-0-0---
D|---x-x-x-x-x---x-x-x-x-x---x-x-x-x-x---x-x-x-x-x---

D|---0-0-0-0-0---2-2-2-2-2---3-3-3-3-3---2-2-2-2-2---0-0-0-0-0---
A|---0-0-0-0-0---0-0-0-0-0---0-0-0-0-0---0-0-0-0-0---0-0-0-0-0---
G|---2-2-2-2-2---2-2-2-2-2---2-2-2-2-2---2-2-2-2-2---2-2-2-2-2---
D|---0-0-0-0-0---0-0-0-0-0---0-0-0-0-0---0-0-0-0-0---0-0-0-0-0---
A|---0-0-0-0-0---0-0-0-0-0---0-0-0-0-0---0-0-0-0-0---0-0-0-0-0---
D|---x-x-x-x-x---x-x-x-x-x---x-x-x-x-x---x-x-x-x-x---x-x-x-x-x---


D|--0-----0-----0-----0-----0-----0-----0-----0-----0-----0-----0-----0---------
A|----0-----0-----0-----0-----0-----0-----0-----0-----0-----0-----0-----0-------
G|------2-----2-----2-----2-----2-----2-----2-----2-----2-----2-----2-----2-----
D|--0-----------------------0-----------------------0---------------------------
A|------------------------------------------------------------------------------
D|------------------------------------------------------------------------------

D|--0-----0-----0-----0-----0-----0-----0-----0-----0-----0-----0-----0---------
A|----0-----0-----0-----0-----0-----0-----0-----0-----0-----0-----0-----0-------
G|------2-----2-----2-----2-----2-----2-----2-----2-----2-----2-----2-----2-----
D|--0-----------------------0-----------------------0---------------------------
A|------------------------------------------------------------------------------
D|------------------------------------------------------------------------------

D|--0-----0-----0-----0-----0-----0-----0-----0-----0-----0-----0-----0---------
A|----0-----0-----0-----0-----0-----0-----0-----0-----0-----0-----0-----0-------
G|------2-----2-----2-----2-----2-----2-----2-----2-----2-----2-----2-----2-----
D|--0-----------------------0-----------------------0---------------------------
A|------------------------------------------------------------------------------
D|------------------------------------------------------------------------------


D|--0-----0-----0-----0-----0-----0-----0-----0-----0-----0-----0-----0---------
A|----0-----0-----0-----0-----0-----0-----0-----0-----0-----0-----0-----0-------
G|------2-----2-----2-----2-----2-----2-----2-----2-----2-----2-----2-----2-----
D|--0-----------------------0-----------------------0---------------------------
A|------------------------------------------------------------------------------
D|------------------------------------------------------------------------------

D|--12(Harmonic)-----7(Harmonic)-----5(Harmonic)------
A|--12(Harmonic)-----7(Harmonic)-----5(Harmonic)------
G|--12(Harmonic)-----7(Harmonic)-----5(Harmonic)------
D|--12(Harmonic)-----7(Harmonic)-----5(Harmonic)------
A|----------------------------------------------------
D|----------------------------------------------------
Guitar Tab Creator is intended to store guitar tab created through the tool. It currently does not support in-line text editing. Any text you place in here will be lost. If you need to comment on your tab, please use the "Tab Notes" section located below.