Get Me Naked 2: Electric Boogaloo

(/) Slide Up  (\) Slide Down  (h) Hammer On  (p) Pull Off  (b) Bend (r) Release (v) Vibrato

E|--
B|--
G|--
D|--
A|--
E|--

INTRO x4
(The fun begins)

E|-----------10p-3----12p-3-|
B|--10-10p-1----------------|
G|-----------------12-------|
D|--------------------------| x4
A|--10-10p-3----------------|
E|--------------------------|

E|-----------10p-7----12p-7-|-----------10p-5----12p-5||
B|--10-10p-5-------12-------|--10-10p-3-------12------||
G|--------------------------|-------------------------||
D|--------------------------|-------------------------||
A|--10-10p-7----------------|--10-10p-5---------------||
E|--------------------------|-------------------------||

(Jake's subtle track, completely separate guitar)

E|-------------------------------------------------||
B|----------------------------------------------12-||
G|--------------------12---------------------12----||
D|--12---------12h-14-----12---------12h-14--------|| (Play until end of Intro)
A|-----10h-12----------------10h-12----------------||
E|-------------------------------------------------||

PRE-VERSE
(Slightly different 'Hey, Wanna Throw Up?')

E|--3----------3---------|
B|--1---12p-1--1---12p-1-|
G|--0----------0---------|
D|--0----------0---------|
A|--3----------3---------|
E|--0----------0---------|

E|------7----5---------------3----------3---------|
B|---5---5--3-3-3/-5-5\-3--1-1---12p-1--1---12p-1-|
G|---------------------------0----------0---------|
D|---------------------------0----------0---------| x2
A|--7---------------------3--3----------3---------|
E|---------------------------0----------0---------|

VERSE
(Remember, left hand keeps its form)

E|--------12p-7-------12p-7---------12p-3-------12p-5-|
B|--10p-5-------12p-5---------10p-3-------12p-3-------|
G|----------------------------------------------------|
D|----------------------------------------------------|
A|--10p-7---------------------10p-5-------------------|
E|----------------------------------------------------|

|--------15p-3-------15p-3-------15p-3-------------||
|--15p-1-------17p-1-------15p-1-------15p-1-17p-1-||
|--------------------------------------------------||
|--------------------------------------------------|| x4
|--------------------------------------------------||
|--------------------------------------------------||

CHORUS
(Similar to the Intro, only the first part is played twice instead of four times)

E|-----------10p-3----12p-3-|
B|--10-10p-1----------------|
G|-----------------12-------|
D|--------------------------| x2
A|--10-10p-3----------------|
E|--------------------------|

E|-----------10p-3----12p-3-|-----------10p-7----12p-7-||
B|--10-10p-1----------------|--10-10p-5-------12-------||
G|-----------------12-------|--------------------------||
D|--------------------------|--------------------------||
A|--10-10p-3----------------|--10-10p-7----------------||
E|--------------------------|--------------------------||

(Knick knack, the track is back!)

E|-------------------------------------------------||
B|----------------------------------------------12-||
G|--------------------12---------------------12----||
D|--12---------12h-14-----12---------12h-14--------||
A|-----10h-12----------------10h-12----------------||
E|-------------------------------------------------||

CHORUS OUTRO
(Mmm... Let's slow it down)

E|--3------5------3------5-||
B|--1--12--3------1------3-||
G|--0------0--12--0------0-||
D|--0------0------0------0-||
A|--3------5------3------5-||
E|--0------0------0------0-||

BREAKDOWN
(That's right, a 'breakdown')

E|--5-|
B|--3-|
G|----|
D|----| x16
A|--5-|
E|----|

E|--7-10/-12-5---7-10/-12-5-|
B|--5--8/-10-3---5--8/-10-3-|
G|--------------------------|
D|--------------------------|
A|--------------------------|
E|--------------------------|


E|--12-12--7-7--10-10--5-5-|--7-10/-12-55---5--8/-10-5-|
B|--10-10--5-5---8--8--3-3-|--5--8/-10-33---5--8/-10-3-|
G|-------------------------|---------------------------|
D|-------------------------|---------------------------| x3
A|-------------------------|---------------------------|
E|-------------------------|---------------------------|

(Oh look, Jake comes back with a second guitar)

E|--------------------------------------------------|
B|--------------------------------------------------|
G|--7h-9-7h-9-7h-9-7h-9-7h-9------------------------|
D|------------------------------5h-7-------5h-7-----| (Until end of Breakdown)
A|----------------------------7------55--7-------55-|
E|--------------------------------------------------|

(Back to Dave)

E|--12-12--7-7--10-10--5-5-| |--7-10/-12-||
B|--10-10--5-5---8--8--3-3-| |--5--8/-10-||
G|-------------------------| |-----------||
D|-------------------------| x3 |-----------||
A|-------------------------| |-----------||
E|-------------------------| |-----------||

FINAL CHORUS
(C'mon, you can do this much without help)

E|--------12p-7-------12p-7---------12p-3-------12p-5-|
B|--10p-5-------12p-5---------10p-3-------12p-3-------|
G|----------------------------------------------------|
D|----------------------------------------------------|
A|--10p-7---------------------10p-5-------------------|
E|----------------------------------------------------|

|--------15p-3-------15p-3-------15p-3-------------|
|--15p-1-------17p-1-------15p-1-------15p-1-17p-1-|
|--------------------------------------------------|
|--------------------------------------------------|
|--------------------------------------------------|
|--------------------------------------------------|

|--------12p-7-------12p-7---------12p-3-------12p-5--3-|
|--10p-5-------12p-5---------10p-3-------12p-3--------1-|
|-----------------------------------------------------0-|
|-----------------------------------------------------0-|
|--10p-7---------------------10p-5--------------------3-|
|-----------------------------------------------------0-|
Guitar Tab Creator is intended to store guitar tab created through the tool. It currently does not support in-line text editing. Any text you place in here will be lost. If you need to comment on your tab, please use the "Tab Notes" section located below.