Sylvio 2012 St. 1




E|--------------------------|--------------------------|-----
B|--------------------------|--------------------------|-----
G|--------------------------|--------------------------|-----
D|--------------------------|--------------------4--5--|-----
A|--5--5--5--5--5--5--5--5--|--5--5--5--5--5--5--2--3--|-----
E|--3--3--3--3--3--3--3--3--|--3--3--3--3--3--3--------|-----



E|--------------------------|--------------------------|--------------
B|--------------------------|--------------------------|--------------
G|--------------------------|--------------------------|--------------
D|--------------------------|--------------------4--5--|--------------
A|--2--2--2--2--2--2--2--2--|--2--2--2--2--2--2--2--3--|--5--5--5--5--
E|--0--0--0--0--0--0--0--0--|--0--0--0--0--0--0--------|--3--3--3--3--
Guitar Tab Creator is intended to store guitar tab created through the tool. It currently does not support in-line text editing. Any text you place in here will be lost. If you need to comment on your tab, please use the "Tab Notes" section located below.