Leo Brouwer - Etude 2

Finger:   1  3     1  3  4  1  3  4              1  3     1  3  4  1  3  4

E|-----0--------0-----------------------|-----0--------0-----------------------|--
B|--------4--------4--------4-----------|--------4--------4--------4-----------|--
G|-----------6--------6--------6--------|-----------6--------6--------6--------|--
D|-----------------------7--------7-----|-----------------------7--------7-----|--
A|--0--------------------------------0--|--0--------------------------------0--|--
E|--------------------------------------|--------------------------------------|--


Finger: 1 3 1 3 2 1 3 2 1 3 1 3 2 1 3 2

E|-----0--------0-----------------------|-----0--------0-----------------------|--
B|--------4--------4--------4-----------|--------4--------4--------4-----------|--
G|-----------6--------6--------6--------|-----------6--------6--------6--------|--
D|-----------------------5--------5-----|-----------------------5--------5-----|--
A|--0--------------------------------0--|--0--------------------------------0--|--
E|--------------------------------------|--------------------------------------|--


2 3 2 3 1 2 3 1 2 3 2 3 1 2 3 1

E|-----0--------0-----------------------|-----0--------0-----------------------|--
B|--------4--------4--------4-----------|--------4--------4--------4-----------|--
G|-----------5--------5--------5--------|-----------5--------5--------5--------|--
D|-----------------------4--------4-----|-----------------------4--------4-----|--
A|--0--------------------------------0--|--0--------------------------------0--|--
E|--------------------------------------|--------------------------------------|--

2 3 2 3 1 2 3 1 2 3 2 3 1 2 3 1

E|-----0--------0-----------------------|-----0--------0-----------------------|--
B|--------3--------3--------3-----------|--------3--------3--------3-----------|--
G|-----------4--------4--------4--------|-----------4--------4--------4--------|--
D|-----------------------3--------3-----|-----------------------3--------3-----|--
A|--0--------------------------------0--|--0--------------------------------0--|--
E|--------------------------------------|--------------------------------------|--

2 4 2 4 1 2 4 1 2 4 2 4 1 2 4 1

E|-----0--------0-----------------------|-----0--------0-----------------------|--
B|--------2--------2--------2-----------|--------2--------2--------2-----------|--
G|-----------4--------4--------4--------|-----------4--------4--------4--------|--
D|-----------------------2--------2-----|-----------------------2--------2-----|--
A|--0--------------------------------0--|--0--------------------------------0--|--
E|--------------------------------------|--------------------------------------|--

1 4 1 4 2 1 4 2 1 4 1 4 2 1 4 2

E|-----0--------0-----------------------|-----0--------0-----------------------|--
B|--------1--------1--------1-----------|--------1--------1--------1-----------|--
G|-----------4--------4--------4--------|-----------4--------4--------4--------|--
D|-----------------------2--------2-----|-----------------------2--------2-----|--
A|--0--------------------------------0--|--0--------------------------------0--|--
E|--------------------------------------|--------------------------------------|--

2 4 4 1 4 1 2 2 4 4 1 4 1 2

E|-----0--------0-----------------------|-----0--------0-----------------------|--
B|--------0--------0--------0-----------|--------0--------0--------0-----------|--
G|-----------5--------5--------5--------|-----------5--------5--------5--------|--
D|-----------------------2--------2-----|-----------------------2--------2-----|--
A|--------------------------------------|--------------------------------------|--
E|--3--------------------------------3--|--3--------------------------------3--|--

2 4 4 3 4 3 2 2 4 4 3 4 3 2

E|-----0--------0-----------------------|-----0--------0-----------------------|--
B|--------0--------0--------0-----------|--------0--------0--------0-----------|--
G|-----------2--------2--------2--------|-----------2--------2--------2--------|--
D|-----------------------2--------2-----|-----------------------2--------2-----|--
A|--------------------------------------|--------------------------------------|--
E|--2--------------------------------2--|--2--------------------------------2--|--

1 3 3 3 1 1 3 3 3 1

E|-----0--------0-----------------------|-----0--------0-----------------------|--
B|--------0--------0--------0-----------|--------0--------0--------0-----------|--
G|-----------2--------2--------2--------|-----------2--------2--------2--------|--
D|-----------------------0--------0-----|-----------------------0--------0-----|--
A|--------------------------------------|--------------------------------------|--
E|--1--------------------------------1--|--1--------------------------------1--|--

3 3 2 3 2 1 1 2 1 2

E|-----0--------0-----------------------|-----0--------0-----------------------|--
B|--------0--------0--------0-----------|--------0--------0--------0-----------|--
G|-----------2--------2--------2--------|-----------1--------1--------1--------|--
D|-----------------------2--------2-----|-----------------------2--------2-----|--
A|--------------------------------------|--------------------------------------|--
E|--0--------------------------------0--|--0--------------------------------0--|--

1 3 1 3 1 3 1 3

E|-----0------------------------|-----0------------------------|-----
B|--------0----------0----------|--------0----------0----------|-----
G|-----------10---------10------|-----------10---------10------|-----
D|---------------12---------12--|---------------12---------12--|-----
A|--0---------------------------|--0---------------------------|-----
E|------------------------------|------------------------------|-----

4 3 4 3 4 3 4 3

E|-----0------------------------|-----0------------------------
B|--------0----------0----------|--------0----------0----------
G|-----------11---------11------|-----------11---------11------
D|---------------11---------11--|---------------11---------11--
A|--0---------------------------|--0---------------------------
E|------------------------------|------------------------------

4 1 4 1 4 1 4 1

E|-----0--------------------|-----0--------------------
B|--------0--------0--------|--------0--------0--------
G|-----------7--------7-----|-----------7--------7-----
D|--------------4--------4--|--------------4--------4--
A|--0-----------------------|--0-----------------------
E|--------------------------|--------------------------

4 3 4 3 4 3 4 3

E|-----0--------------------|-----0--------------------
B|--------0--------0--------|--------0--------0--------
G|-----------6--------6-----|-----------6--------6-----
D|--------------6--------6--|--------------6--------6--
A|--0-----------------------|--0-----------------------
E|--------------------------|--------------------------


1 3 1 3 1 3 1 3

E|-----0------------------------|-----0------------------------|-----
B|--------0----------0----------|--------0----------0----------|-----
G|-----------10---------10------|-----------10---------10------|-----
D|---------------12---------12--|---------------12---------12--|-----
A|--0---------------------------|--0---------------------------|-----
E|------------------------------|------------------------------|-----

4 3 4 3 4 3 4 3

E|-----0------------------------|-----0------------------------
B|--------0----------0----------|--------0----------0----------
G|-----------11---------11------|-----------11---------11------
D|---------------11---------11--|---------------11---------11--
A|--0---------------------------|--0---------------------------
E|------------------------------|------------------------------

4 1 4 1 4 1 4 1

E|-----0--------------------|-----0--------------------
B|--------0--------0--------|--------0--------0--------
G|-----------7--------7-----|-----------7--------7-----
D|--------------4--------4--|--------------4--------4--
A|--0-----------------------|--0-----------------------
E|--------------------------|--------------------------

4 3 4 3 4 3 4 3

E|-----0--------------------|-----0--------------------
B|--------0--------0--------|--------0--------0--------
G|-----------6--------6-----|-----------6--------6-----
D|--------------6--------6--|--------------6--------6--
A|--0-----------------------|--0-----------------------
E|--------------------------|--------------------------

2 3 1 2 3 1 2 4 1 2 4 1

E|-----0--------------------|-----0--------------------|--
B|--------3--------3--------|--------2--------2--------|--
G|-----------4--------4-----|-----------4--------4-----|--
D|--------------3--------3--|--------------2--------2--|--
A|--0-----------------------|--0-----------------------|--
E|--------------------------|--------------------------|--


2 3 1 2 3 1 2 4 1 2 4 1 4

E|-----0--------------------|-----0--------------------|--5
B|--------3--------3--------|--------2--------2--------|--
G|-----------4--------4-----|-----------4--------4-----|--
D|--------------3--------3--|--------------2--------2--|--
A|--0-----------------------|--0-----------------------|--
E|--------------------------|--------------------------|--
Guitar Tab Creator is intended to store guitar tab created through the tool. It currently does not support in-line text editing. Any text you place in here will be lost. If you need to comment on your tab, please use the "Tab Notes" section located below.