kamilla Stunde 1 2013

(/) Slide Up  (\) Slide Down  (h) Hammer On  (p) Pull Off  (b) Bend (r) Release (v) Vibrato
E|--0--0--0--0--|--0--0--0--0--|--1--1--1--1--|--0--0--0--0--|--
B|--1--1--1--1--|--1--1--1--1--|--1--1--1--1--|--1--1--1--1--|--
G|--0--0--0--0--|--2--2--2--2--|--2--2--2--2--|--0--0--0--0--|--
D|--2--2--2--2--|--2--2--2--2--|--3--3--3--3--|--2--2--2--2--|--
A|--3--3--3--3--|--0--0--0--0--|--------------|--3--3--3--3--|--
E|--------------|--------------|--------------|--------------|--



E|--8---8---8---8---|--5--5--5--5--|--1--1--1--1--|--0--0--0--0--|--
B|--8---8---8---8---|--5--5--5--5--|--1--1--1--1--|--1--1--1--1--|--
G|--9---9---9---9---|--5--5--5--5--|--2--2--2--2--|--0--0--0--0--|--
D|--10--10--10--10--|--7--7--7--7--|--3--3--3--3--|--2--2--2--2--|--
A|------------------|--------------|--------------|--3--3--3--3--|--
E|------------------|--------------|--------------|--------------|--
http://www.guitartabcreator.com
Guitar Tab Creator is intended to store guitar tab created through the tool. It currently does not support in-line text editing. Any text you place in here will be lost. If you need to comment on your tab, please use the "Tab Notes" section located below.