Afterlife by COTAM

(/) Slide Up  (\) Slide Down  (h) Hammer On  (p) Pull Off  (b) Bend (r) Release (v) Vibrato

Intro + verse

E|--------------------------------------------
B|-----3-----------3--------3-----------3-----
G|--------2--------------2-----2-----------0--
D|-----------0--------------------0-----------
A|--3-----------2-----1--------------0--------
D|--------------------------------------------



E|--------------------------------------------
B|-----3-----------3--------3-----------3-----
G|--------2-------2------2-----2-----------0--
D|-----------0--------------------0-----------
A|--3-----------2-----1-----------------------
D|-----------------------------------0--------

Verse 2nd part - Strum

E|----------------------------
B|--3-------3-----3-----3-----
G|--2-------2-----2-----2-----
D|--0-------0-----0-----0-----
A|--3-------2-----1-----2-----
D|----------------------------

Chorus

E|---------------------------------------
B|---------------------------------------
G|---------------------------------------
D|--3-3-XXX-2-22-XXX-0-0-00--555-5555----
A|--3-3-XXX-2-22-XXX-0-0-00--555-5555----
D|--3-3-XXX-2-22-XXX-0-0-00--555-5555----

E|---------------------------------------
B|---------------------------------------
G|---------------------------------------
D|--3-3-XXX-2-22-XXX-0-0-00--000-0000----
A|--3-3-XXX-2-22-XXX-0-0-00--000-0000----
D|--3-3-XXX-2-22-XXX-0-0-00--000-0000----

3rd part

E|---------------------------------------
B|---------------------------------------
G|---------------------------------------
D|--3-5-3-0-2-3-2-0----------------------
A|--3-5-3-0-2-3-2-0----------------------
D|--3-5-3-0-2-3-2-0----------------------

repeat with palm mute

Good luck, guys :)

http://www.guitartabcreator.com
Guitar Tab Creator is intended to store guitar tab created through the tool. It currently does not support in-line text editing. Any text you place in here will be lost. If you need to comment on your tab, please use the "Tab Notes" section located below.