Carry Me Home by The Killers

(/) Slide Up  (\) Slide Down  (h) Hammer On  (p) Pull Off  (b) Bend (r) Release (v) Vibrato


E|--------8-----------8-----------8--------5--8--5--------8-----------8--------5--8--5-----
B|-----5-----5-----6-----6--5--8-----8--6--------------6-----6--5--8-----8--6--------------
G|--5-----------7-----------------------------------7--------------------------------------
D|-----------------------------------------------------------------------------------------
A|-----------------------------------------------------------------------------------------
E|-----------------------------------------------------------------------------------------



E|-----7--8--7--------8-----------7------------8-----------8-----------7------------8------
B|--8--------------8-----8-----8-----8------8-----8-----8-----8-----8-----8-----10-----10--
G|--------------5-----------7-----------10-----------9-----------7-----------9-------------
D|-----------------------------------------------------------------------------------------
A|-----------------------------------------------------------------------------------------
E|-----------------------------------------------------------------------------------------



E|---------8--------7--8--10--
B|------8-----8--8------------
G|--10------------------------
D|----------------------------
A|----------------------------
E|----------------------------
http://www.guitartabcreator.com
Guitar Tab Creator is intended to store guitar tab created through the tool. It currently does not support in-line text editing. Any text you place in here will be lost. If you need to comment on your tab, please use the "Tab Notes" section located below.