Sick, Sick, Sick

(/) Slide Up  (\) Slide Down  (h) Hammer On  (p) Pull Off  (b) Bend (r) Release (v) Vibrato

E|--------------7--------------5-----------------3--
B|-----------8--------------5-----------------3-----
G|--------9--------------5-----------------4--------
D|-----9--------------5-----------------5-----------
A|--7--------------3-----------------5--------------
E|--------------------------------3-----------------



E|--------------------------------------
B|--------------------------------------
G|--------9--------5--------------------
D|-----9--------5-----------5--------9--
A|--7--------3-----------5--------9-----
E|--------------------3--------7--------



E|--------------------------------------
B|--------------------------------------
G|-----------------7--------9--------5--
D|--------5-----7--------9--------5-----
A|-----5-----5--------7--------3--------
E|--3-----------------------------------
http://www.guitartabcreator.com
Guitar Tab Creator is intended to store guitar tab created through the tool. It currently does not support in-line text editing. Any text you place in here will be lost. If you need to comment on your tab, please use the "Tab Notes" section located below.