Song

(/) Slide Up  (\) Slide Down  (h) Hammer On  (p) Pull Off  (b) Bend (r) Release (v) Vibrato
E|---------------------------------------------
B|---------------------------------------------
G|---------------------------------------------
D|---------------------------------------------
A|-----2--------2----------2--------2-----3\2--
E|--0-----3--0-----3/5--0-----3--0-----3-------



E|-----------------------------------------------
B|-----------------------------------------------
G|-----------------------------------------------
D|--2--4-----2--4--------2--4-----2--4-----5--4--
A|--2--2--5--2--2--5--7--2--2--5--2--2--5--3--2--
E|--0-----3--0-----3--5--0-----3--0-----3--------



E|-----------------------------------------------------------------------------------------------------
B|-----------------------------------------------------------------------------------------------------
G|-----------------------------------------------------------------------------------------------------
D|-----------------------------------------------------------------------------------------------------
A|--2-----------------------------------------------2--------------------------------------------------
E|--0--0--0--0--0--0--0--0--0--0--0--0--0--3--2--3--0--0--0--0--0--0--0--0--0--0--0--0--0--3--2--3--5--



E|---------------------------------------------------------------------------------------------------
B|-----------------------------------------3---------------------------------------------------------
G|-----------------------------------------2-----5---------------------------------------------------
D|-----------------------------------------0-----5-----------------------------9-----------5--7--9v--
A|--2-----------------------------------------0--3--2-----------------------7-----5--7--9------------
E|--0--0--0--0--0--0--0--0--0--0--0--0--0-----------0--0--0--0--0--0--0--5---------------------------
http://www.guitartabcreator.com
Guitar Tab Creator is intended to store guitar tab created through the tool. It currently does not support in-line text editing. Any text you place in here will be lost. If you need to comment on your tab, please use the "Tab Notes" section located below.