Unearth "My Will Be Done" intro sweep

(/) Slide Up  (\) Slide Down  (h) Hammer On  (p) Pull Off  (b) Bend (r) Release (v) Vibrato
E|-----------------10--14p10--------------10--14h15p10---------------------10--14p10--------------
B|-------------12-------------12------12----------------12-------------12-------------12------12--
G|---------11---------------------11-------------------------------11---------------------11------
D|--9--12---------------------------------------------------9--12---------------------------------
A|------------------------------------------------------------------------------------------------
E|------------------------------------------------------------------------------------------------



E|--10--14h15p10-------------------7--10p7-----------7--10h11p7------------------7--10p7-----------
B|----------------12------------8-----------8-----8--------------8------------8-----------8-----8--
G|---------------------------7-----------------7---------------------------7-----------------7-----
D|------------------------9---------------------------------------------9--------------------------
A|--------------------10--------------------------------------------10-----------------------------
E|-------------------------------------------------------------------------------------------------



E|--7--10h11p7-----
B|--------------8--
G|-----------------
D|-----------------
A|-----------------
E|-----------------
http://www.guitartabcreator.com
Guitar Tab Creator is intended to store guitar tab created through the tool. It currently does not support in-line text editing. Any text you place in here will be lost. If you need to comment on your tab, please use the "Tab Notes" section located below.