Trivium-esque Sweep Progression

(/) Slide Up  (\) Slide Down  (h) Hammer On  (p) Pull Off  (b) Bend (r) Release (v) Vibrato


E|-------------------8--12p8-----------------------------------8--13p8-------------------------------
B|---------------10-----------10---------------------------10-----------10---------------------------
G|------------9-------------------9--------------------10-------------------10--------------------9--
D|--------10-------------------------10------------10---------------------------10------------10-----
A|--7h12---------------------------------12--8h12-----------------------------------12--7h12---------
E|---------------------------------------------------------------------------------------------------



E|------8--12p8--------------------------------7--10p7---------------
B|--10-----------10-------------------------9-----------9------------
G|-------------------9-------------------9-----------------9---------
D|----------------------10------------9-----------------------9------
A|--------------------------12--7h11-----------------------------11--
E|-------------------------------------------------------------------
http://www.guitartabcreator.com
Guitar Tab Creator is intended to store guitar tab created through the tool. It currently does not support in-line text editing. Any text you place in here will be lost. If you need to comment on your tab, please use the "Tab Notes" section located below.