Enlightement

[code]
(/) Slide Up (\) Slide Down (h) Hammer On (p) Pull Off (b) Bend (r) Release (v) Vibrato


E|-------------------------------------------------------------
B|-------------------------------------------------------------
G|-------7-----7---------4-----4---------2h4-2-0-------2h4-2-0-
D|---5-----5---------4-----4---------2-------------2-----------
A|-7---7-----7-----5---5-----5-----3---3---------3---3---------
E|-------------------------------------------------------------



E|-------------------------------------------------------------
B|---------------------------------------------------------3-0-
G|-------7-----7---------4-----4---------2h4-2-0-------2h4-----
D|---5-----5---------4-----4---------2-------------2-----------
A|-7---7-----7-----5---5-----5-----3---3---------3---3---------
E|-------------------------------------------------------------



E|-7---------------5--------------10-----------------3-----2---
B|-7---------------5--------------10-----------------3-----2---
G|-9------9h12-9---7-----7h11-7---12-12p11-----------5-----4---
D|-9-9h12----------7-7h9----------12-------12p9-12---5-----4---
A|-7---------------5--------------10-----------------3---2-2---
E|-7---------------5--------------10-----------------5-5---2---



E|---7---7---10---9----8----------------------------------------
B|---7---7---10---9----8----------------------------------------
G|---9---7---12---11---10---------------------------------------
D|---9---9---12---11---10---------------------------------------
A|---7---9---10---9----8----------------------------------------
E|---7---7---10---9----8----------------------------------------



E|---7---7---10---10---------7---7---10------------------------
B|---7---7---10---10---------7---7---10------------------------
G|---9---7---12---10---------9---7---12------------------------
D|---9---9---12---12---------9---9---12------------------------
A|---7---9---10---12---------7---9---10------------------------
E|---7---7---10---10---------7---7---10------------------------
[/code]
[url]http://www.guitartabcreator.com[/url]
Guitar Tab Creator is intended to store guitar tab created through the tool. It currently does not support in-line text editing. Any text you place in here will be lost. If you need to comment on your tab, please use the "Tab Notes" section located below.