Something So Insecure

(/) Slide Up  (\) Slide Down  (h) Hammer On  (p) Pull Off  (b) Bend (r) Release (v) Vibrato

Stave 1:

E|---------------------------------------------
B|---------------------------------------------
G|-9--9---9---2-2--2--6-6-6-6-6-4--6-6-6-6-6-4-
D|-11-11--11--4-4--4--7-7-7-7-7-6--7-7-7-7-7-6-
A|-11-11--11--4-4--4--7-7-7-7-7-6--7-7-7-7-7-6-
E|---------------------------------------------

Stave 2:

E|-------------------------------------------------------------
B|-------------------------------------------------------------
G|----------16-14-13-13-14-13-------------------16----------16-
D|-13-14-13-------------------16-14-13-13-14-13----13-14-13----
A|-------------------------------------------------------------
E|-------------------------------------------------------------

Stave 3:

E|-------------------------------------------------------------
B|-------------------------------------------------------------
G|----------16-14-13-13-14-13----------------------------------
D|-13-14-13-------------------16-14-13-13-14-13-18-13-14-13-18-
A|-------------------------------------------------------------
E|-------------------------------------------------------------

Stave 4:

E|-------------------------------------------------------------
B|----------16-14-12-12-14-12-------------------16----------16-
G|-11-13-11-------------------14-13-11-11-13-11----11-13-11----
D|-------------------------------------------------------------
A|-------------------------------------------------------------
E|-------------------------------------------------------------

Stave 5:

E|-------------------------------------------------------------
B|----------16-14-12-12-14-12-------------------12----------12-
G|-11-13-11-------------------14-13-11-11-13-11----11-13-11----
D|-------------------------------------------------------------
A|-------------------------------------------------------------
E|-------------------------------------------------------------

Stave 6:

E|-0--0-0--0-0---0-0-0-0-0-
B|-0--0-0--0-0-0-0-0-0-0-0-
G|-9--8-9--8-2-2-2-4-6-6-4-
D|-11-9-11-9-4-4-4-6-7-7-6-
A|-11-9-11-9-4-4-4-6-7-7-6-
E|-------------------------

Stave 7:

E|--------------------------
B|--------------------------
G|----9--9----2-2---6-6-6-4-
D|----11-11---4-4---7-7-7-6-
A|-11-11-11-4-4-4-7-7-7-7-6-
E|--------------------------

Stave 8:

E|-----------------------------------------------|--------------------------------------
B|-9-9-9-9-10-9-7-5-5-9-10-9-5---5-9-10-9-5-10-9-|-9-9-9-9-10-9-7-5-5-9-10-9-5---5-10-9-
G|-----------------------------6-----------------|-----------------------------6--------
D|-----------------------------------------------|--------------------------------------
A|-----------------------------------------------|--------------------------------------
E|-----------------------------------------------|--------------------------------------

Stave 9:

E|-7-7-7-7-9-7-5-4-4-7-9-7-4---4-7-9-7-4-9-7-|-7-7-7-7-9-7-5-4-4-7-9-7-4---4-9-7-
B|---------------------------5---------------|---------------------------5-------
G|-------------------------------------------|-----------------------------------
D|-------------------------------------------|-----------------------------------
A|-------------------------------------------|-----------------------------------
E|-------------------------------------------|-----------------------------------

Stave 10:

E|--------------------------------
B|-9-7-5-9-7-5-2-2-4-9-10-9-7-5-7-
G|--------------------------------
D|--------------------------------
A|--------------------------------
E|--------------------------------

Stave 11:

E|-------------------------------------------------------------------
B|-9-9-9-9-9-9-9-7-9-9-9-9-9-9-9-7-2-2-2-2-2-2-2-4-5-5-5-5-5-5-5-5-7-
G|-------------------------------------------------------------------
D|-------------------------------------------------------------------
A|-------------------------------------------------------------------
E|-------------------------------------------------------------------

Stave 12:

E|------------------------------------------------------------------
B|-9-9-9-9-9-9-9-12-7-9-9-9-9-9-9-9-9-12-7-9-2-2-2-4-9-10-9-7-5-7-7-
G|------------------------------------------------------------------
D|------------------------------------------------------------------
A|------------------------------------------------------------------
E|------------------------------------------------------------------

Stave 13:

E|-7-5-4-7-5-4-0-0-0-2-7-9-7-5-7-
B|-------------------------------
G|-------------------------------
D|-------------------------------
A|-------------------------------
E|-------------------------------

Stave 14:

E|-7-7-7-7-7-7-7-5-7-7-7-7-7-7-7-5-0-0-0-0-0-0-0-0-2-4-4-4-4-4-4-4-7-
B|-------------------------------------------------------------------
G|-------------------------------------------------------------------
D|-------------------------------------------------------------------
A|-------------------------------------------------------------------
E|-------------------------------------------------------------------

Stave 15:

E|-7-7-7-7-7-7-7-11-5-7-7-7-7-7-7-7-7-11-5-7-0-0-0-2-7-9-7-5-4-5-5-
B|-----------------------------------------------------------------
G|-----------------------------------------------------------------
D|-----------------------------------------------------------------
A|-----------------------------------------------------------------
E|-----------------------------------------------------------------

Stave 16:

E|-----------------------------------------|-----------------------------------
B|-12-9-9-10-9-7-9-12-9-9-10-9-9-7-9-5-----|-----5-10-9-9-7-9-5---------5-10-9-
G|-------------------------------------6-4-|-4-6----------------6-4-4-6--------
D|-----------------------------------------|-----------------------------------
A|-----------------------------------------|-----------------------------------
E|-----------------------------------------|-----------------------------------

Stave 17:

E|-11-7-7-9-7-5-7-11-7-7-9-7-9-5-7-4-----|-----7-9-7-7-5-7-4---------4-9-7-9-
B|-----------------------------------5-4-|-4-5---------------5-4-4-5---------
G|---------------------------------------|-----------------------------------
D|---------------------------------------|-----------------------------------
A|---------------------------------------|-----------------------------------
E|---------------------------------------|-----------------------------------

http://www.guitartabcreator.com
Guitar Tab Creator is intended to store guitar tab created through the tool. It currently does not support in-line text editing. Any text you place in here will be lost. If you need to comment on your tab, please use the "Tab Notes" section located below.