Cliffs of Dover

(/) Slide Up  (\) Slide Down  (h) Hammer On  (p) Pull Off  (b) Bend (r) Release (v) Vibrato

E|-----15b15--12--14------12-----------12---------------------12--15--14--12------14--12-------------
B|--------------------15------12--15b------15--12-----12--15------------------15----------15--12-----
G|-------------------------------------------------14b-----------------------------------------------
D|---------------------------------------------------------------------------------------------------
A|---------------------------------------------------------------------------------------------------
E|--0------------------------------------------------------------------------------------------------



E|--12----------------------------12--------------------------5--7--6--5--------------------------------
B|------15--12-----12--15-----12------------------------5--8--------------8--5-----8--5-----5--3--------
G|--------------14b--------14b--------14b12----------7--------------------------7--------4--------2-----
D|-------------------------------------------14---------------------------------------------------------
A|------------------------------------------------------------------------------------------------------
E|------------------------------------------------------------------------------------------------------



E|----------------------------------------------------------------------------------------------
B|--3--0----------------------------------------------------------------------------------------
G|--------2--0-----2--0---------------------------------------12b12-----------9----------11-----
D|--------------2--------2--0--5--2--0-----2--0-------------------------------------------------
A|--------------------------------------2--------2--0---------------------10---------12---------
E|-----------------------------------------------------2b0-------------8---------10-------------



E|--
B|--
G|--
D|--
A|--
E|--
http://www.guitartabcreator.com
Guitar Tab Creator is intended to store guitar tab created through the tool. It currently does not support in-line text editing. Any text you place in here will be lost. If you need to comment on your tab, please use the "Tab Notes" section located below.