Song 3

E|-----------------------------------|
B|------------------------------4----|
G|----9---10--7---9---5---5------5---|
D|------9-------7-------5---------5--|
A|--7-------5-------3---------3------|
E|-----------------------------------|

E|-----------------------------------|
B|--------8-------6------------------|
G|----9-------7-------5---5-----5-7--|
D|------9-------7-------5-------5-7--|
A|--7-------5-------3---------3-3-5--|
E|-----------------------------------|

E|-----------------------------------|
B|-----------------------------------|
G|--9-9-9-997-7-7-7-5-5-5-5---5-5-7--|
D|--9-9-9-997-7-7-7-5-5-5-5---5-5-7--|
A|--7-7-7-775-5-5-5-3-3-3-3---3-3-5--|
E|-----------------------------------|
Guitar Tab Creator is intended to store guitar tab created through the tool. It currently does not support in-line text editing. Any text you place in here will be lost. If you need to comment on your tab, please use the "Tab Notes" section located below.