Song 2

VERSE

Guitar 1

E|-------------------------------------------------------|
B|-----6~-----6~----6~-----6~----6~-----6~----6~-----6~--|
G|-----5~-----5~----5~-----5~----5~-----5~----5~-----5~--|
D|----------------------------3-------3----3-------3-----|
A|--5-------5----3-------3-------------------------------|
E|-------------------------------------------------------|

Guitar 2

E|------------------------------------------------------|
B|------------------------------------------------------|
G|-----7------7~----7------7-----7------7-----7------7--|
D|-----7------7~----7------7-----7------7-----7------7--|
A|----------------------------5-------5----5-------5----|
E|--7-------7----5-------5------------------------------|

PRECHORUS

Guitar 1

E|-----------------------------------------------------------------|
B|------6-6-----6-------6-6-----6-------6-6-----6-------6-6-----6--|
G|------5-5-----5-------5-5-----5-------5-5-----5-------5-5-----5--|
D|----------------------------------3---------3-----3---------3----|
A|--5---------5-----3---------3------------------------------------|
E|-----------------------------------------------------------------|

Guitar 2

E|-----------------------------------------------------------------|
B|-----------------------------------------------------------------|
G|------7-7-----7-------7-7-----7-------7-7-----7-------7-7-----7--|
D|------7-7-----7-------7-7-----7-------7-7-----7-------7-7-----7--|
A|----------------------------------5---------5-----5---------5----|
E|--7---------7-----5---------5------------------------------------|

CHORUS

Guitar 1 and 2 chords

E|-------------------|
B|----6----6----6----|
G|----7----5----5----|
D|----7----7----3----|
A|----5----5----3----|
E|-------------------|
Guitar Tab Creator is intended to store guitar tab created through the tool. It currently does not support in-line text editing. Any text you place in here will be lost. If you need to comment on your tab, please use the "Tab Notes" section located below.