Song 1

(~) Ring (.) Palm mute (b) Bend (r) Release (x) Mute (/) Slide up (\) Slide down (v) Vibrato

Drop D tuning

--------------------------------------------------------------------------------------------

INTRO:

(Guitar 1)

> Light distortion <

E|----------------------------------|
B|----------------------------------|
G|--777/999/101010/121212/15151515--|
D|--xxx-xxx-x-x-x--x-x-x--x-x-x-x---|
A|--555/777/8-8-8-/101010/13131313--|
E|----------------------------------|

(Guitar 1)
(Guitar 2)

> Heavy distortion <

E|------------------------|
B|------------------------|
G|------------------------|
D|--000-222/333/555-8787--| (x3)
A|--000-222/333/555-8787--|
E|--000-222/333/555-8787--|

E|---------------------------|
B|---------------------------|
G|---------------------------|
D|--000-222/333/555-878/10~--|
A|--000-222/333/555-878/10~--|
E|--000-222/333/555-878/10~--|

> Ring 1 measure <

VERSE:

(Guitar 2)

E|------------------------|
B|------------------------|
G|------------------------|
D|------------------------| (x3)
A|--00-0-0-0000-0-0-------|
E|--00-0-0-0000-0-07br~~--|
.. . . .... .

E|-------------------|
B|-------------------|
G|-------------------|
D|-------------------|
A|--00-0-0-0000-0-0--|
E|--00-0-0-1100-0-0--|
.. . . .. . .


(Guitar 1)

> Wait 4 measures <

E|---------------------|---------------------|
B|---------------------|---------------------|
G|---------------------|---------------------|
D|---------------------|---------------------|
A|--8-7-5-(x4)-8-7-5-7-|-8-7-5-(x4)----------|
E|---------------------|------------7-7-8-8--|
. . . . . . . . . .

CHORUS:

(Guitar 1)
(Guitar 2)

E|------------------------|
B|------------------------|
G|------------------------|
D|--000-222/333/555-8787--| (x3)
A|--000-222/333/555-8787--|
E|--000-222/333/555-8787--|

E|-------------------------|
B|-------------------------|
G|-------------------------|
D|--000-222/333/555-875/7--|
A|--000-222/333/555-875/7--|
E|--000-222/333/555-875/7--|

> Repeat verse <

CHORUS VARIATION:

(Guitar 1)
(Guitar 2)

E|------------------------|
B|------------------------|
G|------------------------|
D|--000-222/333/555-8787--| (x3)
A|--000-222/333/555-8787--|
E|--000-222/333/555-8787--|

(Guitar 2)

E|---------------------------------------|
B|---------------------------------------|
G|---------------------------------------|
D|--000-222/333/555-875/7------875/7-0~--|
A|--000-222/333/555-875/7------875/7-0~--|
E|--000-222/333/555-875/7------875/7-0~--|

(Guitar 1)

E|---------------------------------------|
B|---------------------------------------|
G|------------------------9999-----------|
D|--000-222/333/555-------xxxx-------0~--|
A|--000-222/333/555-------7777-------0~--|
E|--000-222/333/555------------------0~--|

> Ring 2 measures <

BRIDGE:

(Guitar 1)

> Clean <

E|----------3~------------------------------1~--|
B|--------0~------------------------------0~----|
G|------2~------------------------------2~------|
D|----3~------------------------------3~--------|
A|--0~------------------------------0~----------|
E|----------------------------------------------|

E|----------0~------------------------------4~--------------3~--|
B|--------0~------------------------------4~----------------3~--|
G|------1~------------------------------0~------------------0~--|
D|----2~------------------------------0~------------------------|
A|--0~------------------------------0~--------------------------|
E|--------------------------------------------------------------|

(Guitar 2)

> Heavy distortion <

E|-------------------------------------------------------------------|
B|-------------------------------------------------------------------|
G|-------------------------------------------------------------------|
D|-------------------------------------------------------------------|
A|------------------8-7-5-8-7-5-8-7-----------------8-7-5-8-7-5-8-7--|
E|-------------------------------------------------------------------|
. . . . . . . . . . . . . . . .

E|-----------------------------------------------------------------|
B|-----------------------------------------------------------------|
G|-----------------------------------------------------------------|
D|----------------------------------------------x---x---x---x---x--|
A|------------------8-7-5-8-7-5-8-7-------------x---x---x---x---x--|
E|----------------------------------------------x---x---x---x---x--|
. . . . . . . .
Guitar Tab Creator is intended to store guitar tab created through the tool. It currently does not support in-line text editing. Any text you place in here will be lost. If you need to comment on your tab, please use the "Tab Notes" section located below.