Song

(~) Ring (.) Palm mute (b) Bend (x) Mute (/) Slide up (\) Slide down (v) Vibrato

Drop D tuning

-------------------------------------------------------------------------------------------------

INTRO:

(Guitar 1)

E|-----------------------------------------------------------------------------------|
B|----------------------8-8-----------------------------------8-8--------------------|
G|--------10-10-9-9-7-7-----10-10-9-9-10-10-----10-10-9-9-7-7-----10-10-9-9-10-10----|
D|----0-0-----------------------------------0-0--------------------------------------|\
A|----0-0-----------------------------------0-0--------------------------------------| \
E|----0-0-----------------------------------0-0--------------------------------------| \
. . . . (x2)
E|-----------------------------------------------------------------------------------| /
B|----------------------8-8-----------------------------------10-10-10-10------------| /
G|--------10-10-9-9-7-7-----10-10-9-9-10-10-----10-10-9-9-7-7-------------9-9-9-9----|/
D|----0-0-----------------------------------0-0--------------------------------------|
A|----0-0-----------------------------------0-0--------------------------------------|
E|----0-0-----------------------------------0-0--------------------------------------|
. . . .

(Guitar 2)

E|-----------------------------------------------------------------------------------|
B|-----------------------------------------------------------------------------------|
G|-----------------------------------------------------------------------------------|
D|----0-0-----------------------------------0-0--------------------------------------|
A|----0-0-----------------------------------0-0--------------------------------------|
E|----0-0-----------------------------------0-0--------------------------------------|
. . . .
E|-----------------------------------------------------------------------------------|
B|-----------------------------------------------------------------------------------|
G|-----------------------------------------------------------------------------------|
D|----0-0~~~~~~~~~~~~~~~~~~~~~~~~~~~~~~~~~~~0-0--------------------------------------|
A|----0-0~~~~~~~~~~~~~~~~~~~~~~~~~~~~~~~~~~~0-0--------------------------------------|
E|----0-0~~~~~~~~~~~~~~~~~~~~~~~~~~~~~~~~~~~0-0--------------------------------------|
. . .
E|-----------------------------------------------------------------------------------|
B|-----------------------------------------------------------------------------------|
G|------------------------------------------3~~~~~~~~~~~~~~~~~~~~~~~~~~~~~~~~~~~~----|
D|----0~~~~~~~~~~~~~~~~~~~~~~~~~~~~~~~~~~~~~3~~~~~~~~~~~~~~~~~~~~~~~~~~~~~~~~~~~~----|
A|----0~~~~~~~~~~~~~~~~~~~~~~~~~~~~~~~~~~~~~1~~~~~~~~~~~~~~~~~~~~~~~~~~~~~~~~~~~~----|
E|----0~~~~~~~~~~~~~~~~~~~~~~~~~~~~~~~~~~~~~-----------------------------------------|

E|-----------------------------------------------------------------------------------|
B|-----------------------------------------------------------------------------------|
G|----5~~~~~~~~~~~~~~~~~~~~~~~~~~~~~~~~~~~~~3~~~~~~~~~~~~~~~~~~~~~~~~~~~~~~~~~~~~----|
D|----5~~~~~~~~~~~~~~~~~~~~~~~~~~~~~~~~~~~~~3~~~~~~~~~~~~~~~~~~~~~~~~~~~~~~~~~~~~----|
A|----3~~~~~~~~~~~~~~~~~~~~~~~~~~~~~~~~~~~~~1~~~~~~~~~~~~~~~~~~~~~~~~~~~~~~~~~~~~----|
E|-----------------------------------------------------------------------------------|


VERSE:

(Guitar 2)

> Wait 1 measure after intro <

E|-----------------------------------------------------------------------------------|
B|-----------------------------------------------------------------------------------|
G|-----------------------------------------------------------------------------------|
D|----0-----0-----0-------0-------00000-----0-----0-------0---0~~~~~~~~~~~~~~~~~~----| (x3)
A|----0-----0-----0-------0-------00000-----0-----0-------0---0~~~~~~~~~~~~~~~~~~----|
E|----0-----0-----0-------0-------00000-----0-----0-------0---0~~~~~~~~~~~~~~~~~~----|
. . . . ..... . . .
E|-----------------------------------------------------------------------------------|
B|-----------------------------------------------------------------------------------|
G|-----------------------------------------------------------------------------------|
D|----0-----0-----0-------0-----------0-----0-----0-------0---3~~~~~~~~~~~~~~~~~~----|
A|----0-----0-----0-------0-------00000-----0-----0-------0---3~~~~~~~~~~~~~~~~~~----|
E|----0-----0-----0-------0-------11110-----0-----0-------0---3~~~~~~~~~~~~~~~~~~----|
. . . . . . . .

(Guitar 1)

> Wait 5 measures after intro <

E|-----------------------------------------------------------------------------------|
B|---------------------88--------------------------------88--------------------------|
G|--------1010-99--77------1010-99--101010101010-99--77------1010-99--10101010-------|
D|-----------------------------------------------------------------------------------|
A|-----------------------------------------------------------------------------------|
E|-----------------------------------------------------------------------------------|

E|-----------------------------------------------------------------------------------|
B|---------------------88--------------------------------10b10b10b10b10b(11)(11)(11)-|
G|--------1010-99--77------1010-99--101010101010-99--77------------------------------|
D|-----------------------------------------------------------------------------------|
A|-----------------------------------------------------------------------------------|
E|-----------------------------------------------------------------------------------|


CHORUS:

(Guitar 1)

E|-----------------------------------------------------------------------------------|
B|-----------------------------------------------------------------------------------|
G|-------------12-------10-------14--------------------------------------------------|
D|----0--------x--(x8)--x--(x4)--x--(x4)---------------------------------------------| (x4)
A|----0-(x16)--10-------8--------12--------------------------------------------------|
E|----0------------------------------------------------------------------------------|


(Guitar 2)

E|-----------------------------------------------------------------------------------|
B|-----------------------------------------------------------------------------------|
G|-----------------------------------------------------------------------------------|
D|----0--------5-------3-------7-----------------------------------------------------| (x4)
A|----0-(x16)--5-(x8)--3-(x4)--7-(x4)------------------------------------------------|
E|----0--------5-------3-------7-----------------------------------------------------|


> Repeat verse <

> Repeat chorus <

BRIDGE:

(Guitar 1)

E|-----------------------------------------------------------------------------------|
B|-----------------------------------------------------------------------------------|
G|-------10-99-77-1212-10-99-10----10-99-77-1212-10-99-10----------------------------|
D|----00-xx-xx-xx-x-x--xx-xx-xx-00-xx-xx-xx-x-x--xx-xx-xx----------------------------|\
A|----00-88-77-55-1010-88-77-88-00-88-77-55-1010-88-77-88----------------------------| \
E|----00------------------------00---------------------------------------------------| \
.. .. (x2)
E|-----------------------------------------------------------------------------------| /
B|-----------------------------------------------------------------------------------| /
G|-----------------------------------------------------------------------------------|/
D|----4444-5555-7777-9999-6666-7777-1111-9999----------------------------------------|
A|----xxxx xxxx xxxx xxxx xxxx xxxx xxxx xxxx----------------------------------------|
E|----2222-3333-5555-7777-4444-5555-9999-7777----------------------------------------|


(Guitar 2)

E|-----------------------------------------------------------------------------------|
B|-----------------------------------------------------------------------------------|
G|-----------------------------------------------------------------------------------|
D|----5--555-5-5-5555/9999999999999999\7--777-7-7-7777\4--444-4-4-4444---------------| (x2)
A|----5--555-5-5-5555/xxxxxxxxxxxxxxxx\7--777-7-7-7777\x--xxx-x-x-xxxx---------------|
E|----3--333-3-3-3333/7777777777777777\5--555-5-5-5555\2--222-2-2-2222---------------|


(Guitar 1)

E|-----------------------------------------------------------------------------------|
B|--------------------8--------------------------------------------------------------|
G|--------10--9---7-------10--9---10-------------------------------------------------|
D|-----------------------------------------------------------------------------------|
A|-----------------------------------------------------------------------------------|
E|-----------------------------------------------------------------------------------|
. . . . . . .

VERSE VARIATION:

(Guitar 2)

E|-----------------------------------------------------------------------------------|
B|-----------------------------------------------------------------------------------|
G|-----------------------------------------------------------------------------------|
D|----0~~---0~~---0~~-----0~~-----0~~-0~~---0~~---0~~--------------------------------|
A|----0~~---0~~---0~~-----0~~-----0~~-0~~---0~~---0~~-----0~~~~~~~~~~~~~~~~~~~~~~----|
E|----0~~---0~~---0~~-----0~~-----0~~-0~~---0~~---0~~-----1~~~~~~~~~~~~~~~~~~~~~~----|
. . . . . . . .

E|-----------------------------------------------------------------------------------|
B|-----------------------------------------------------------------------------------|
G|-----------------------------------------------------------------------------------|
D|----0~~---0~~---0~~-----0~~-----0~~-0~~---0~~---0~~-----3~~~~~~~~~~~~~~~~~~~~~~----|
A|----0~~---0~~---0~~-----0~~-----0~~-0~~---0~~---0~~-----3~~~~~~~~~~~~~~~~~~~~~~----|
E|----0~~---0~~---0~~-----0~~-----0~~-0~~---0~~---0~~-----3~~~~~~~~~~~~~~~~~~~~~~----|
. . . . . . . .

> Repeat chorus <

OUTRO:

(Guitar 1)

> Slow tempo for last 4 notes <

E|-----------------------------------------------------------------------------------|
B|--------------------8-------------------------------8------------------------------|
G|--------10--9---7-------10--9---10~~~~~~10--9---7-------10--9---10~~~~~~-----------|
D|-----------------------------------------------------------------------------------|
A|-----------------------------------------------------------------------------------|
E|-----------------------------------------------------------------------------------|

E|-----------------------------------------------------------------------------------|
B|--------------------8-------------------------------8------------------------------|
G|--------10--9---7-------10--9---10~~~~~~10--9---7-------10--9---7\-----------------|
D|-----------------------------------------------------------------------------------|
A|-----------------------------------------------------------------------------------|
E|-----------------------------------------------------------------------------------|


(Guitar 2)

E|-----------------------------------------------------------------------------------|
B|-----------------------------------------------------------------------------------|
G|-----------------------------------------------------------------------------------|
D|----0~~~~~~~~~~~~~~~~~~~~~~~~~~~~~~~~~~~~~~~~~~~~~~~~~~~~~~~~~~~~~~~~~~~~~~~~~~----|
A|----0~~~~~~~~~~~~~~~~~~~~~~~~~~~~~~~~~~~~~~~~~~~~~~~~~~~~~~~~~~~~~~~~~~~~~~~~~~----|
E|----0~~~~~~~~~~~~~~~~~~~~~~~~~~~~~~~~~~~~~~~~~~~~~~~~~~~~~~~~~~~~~~~~~~~~~~~~~~----|


(Guitar 1)

> Downstrokes <

E|-----------------------------------------------------------------------------------|
B|-----------------------------------------------------------------------------------|
G|----/12-------10-------------------------------------------------------------------|
D|----/x--(x16)-x--(x16)-------------------------------------------------------------| (x2)
A|----/10-------8--------------------------------------------------------------------|
E|-----------------------------------------------------------------------------------|

> Sudden stop <

(Guitar 2)

> Downstrokes <

E|-----------------------------------------------------------------------------------|
B|-----------------------------------------------------------------------------------|
G|-----------------------------------------------------------------------------------|
D|----5~~5~~5~~5~~5~~5~~5~~5~~3~~3~~3~~3~~0~~0~~0~~0~~-------------------------------| (x2)
A|----5~~5~~5~~5~~5~~5~~5~~5~~3~~3~~3~~3~~0~~0~~0~~0~~-------------------------------|
E|----5~~5~~5~~5~~5~~5~~5~~5~~3~~3~~3~~3~~0~~0~~0~~0~~-------------------------------|

> Sudden stop <
Guitar Tab Creator is intended to store guitar tab created through the tool. It currently does not support in-line text editing. Any text you place in here will be lost. If you need to comment on your tab, please use the "Tab Notes" section located below.