It's Not a Fashion Statement, It's a Deathwish

(/) Slide Up  (\) Slide Down  (~) Ring

Standard tuning

Listen carefully for the strumming patterns..

---------------------------------------------

Intro:

e|--------------------------------------------------------------------------|
B|--------------------------------------------------------------------------|
G|--6-6-6-6-6-6-6-6-6--6-6-6-6-8-9-8-6--9-9-9-8-8-8-8-8--6-6-8-6-5-5-5-5-5--|
D|--x-x-x-x-x-x-x-x-x--x-x-x-x-x-x-x-x--x-x-x-x-x-x-x-x--x-x-x-x-x-x-x-x-x--|
A|--4-4-4-4-4-4-4-4-4--x-x-x-x-x-x-x-x--x-x-x-x-x-x-x-x--x-x-x-x-x-x-x-x-x--|
E|---------------------5-5-5-5-5-5-5-5--7-7-7-7-7-7-7-7--4-4-4-4-4-4-4-4-4--|

e|-------------------------------------------------------|
B|-------------------------------------------------------|
G|--6-6-6-6-6-6-6-6-6--6-6-6-6-8-9-8-6--9-9-9-8-8-8-8-8--|
D|--x-x-x-x-x-x-x-x-x--x-x-x-x-x-x-x-x--x-x-x-x-x-x-x-x--|
A|--4-4-4-4-4-4-4-4-4--x-x-x-x-x-x-x-x--x-x-x-x-x-x-x-x--|
E|---------------------5-5-5-5-5-5-5-5--7-7-7-7-7-7-7-7--|

e|--------------------------------|
B|--------------------------------|
G|--------------------------------|
D|--------------------------6--6--|
A|--6-6-6-6-6-6-6-6-6-6-6-6-6--6--|
E|--4-4-4-4-4-4-4-4-4-4-4-4-4--4--|
. . . . . . . . . . . .

e|-------------------------------------------------------------|
B|-------------------------------------------------------------|
G|--9-9-9-9-9-9-9-9-9-9-9-9-8/9-9-9-9-9-9-9-9-9-9-9-9-9-11/13--|
D|--x-x-x-x-x-x-x-x-x-x-x-x-x/x-x-x-x-x-x-x-x-x-x-x-x-x--x/-x--|
A|--7-7-7-7-7-7-7-7-7-7-7-7-6/7-7-7-7-7-7-7-7-7-7-7-7-7--9/11--|
E|-------------------------------------------------------------|

e|----------------------------------------------------------------------------|
B|----------------------------------------------------------------------------|
G|--13-13-13-13-13-13-13-13-13-13-13-13-11\9-9-9-9-9-9-9/11-11-11-11\8-8-8-8--|
D|---x--x--x--x--x--x--x--x--x--x--x--x--x\x-x-x-x-x-x-x/-x--x--x--x\x-x-x-x--|
A|--11-11-11-11-11-11-11-11-11-11-11-11--9\7-7-7-7-7-7-7/-9--9--9--9\6-6-6-6--|
E|----------------------------------------------------------------------------|

e|----------------------------------------------|
B|----------------------------------------------|
G|--6-6-6-6-6-6-6-6-6-9-9-9-13-13-13-13/14-13\--|
D|--x-x-x-x-x-x-x-x-x-x-x-x--x--x--x--x--x--x\--|
A|--4-4-4-4-4-4-4-4-4-x-x-x-11-11-11-11/12-11\--|
E|--------------------9-9-9---------------------|

Verse:

e|----------------------------------------------------------|
B|----------------------------------------------------------|
G|--6-------------------------------------------------------|
D|--6-(x16)-7-------9---------------------------------------| (x2)
A|--4-------7-(x16)-9-(x16)-6-6-6~--6-6~--6-6~--6-6~--6-6~--|
E|----------5-------7-------4-4-4~--4-4~--4-4~--4-4~--4-4~--|
. . . . . .

e|-----------------------------------|
B|-----------------------------------|
G|-----------------------------------|
D|--7-------9-------6-------7--------|
A|--7-(x16)-9-(x16)-6-(x16)-7-(x16)--|
E|--5-------7-------4-------5--------|

e|---------------------------------------------|
B|---------------------------------------------|
G|--6------8------9------4------8------9-------|
D|--x-(x8)-x-(x4)-x-(x4)-x-(x8)-x-(x4)-x-(x4)--|
A|--4------6------7------2------6------7-------|
E|---------------------------------------------|

e|--------------------------------------------------------------------------------|
B|--------------------------------------------------------------------------------|
G|-------------------------------------------------------9-9-9-9-9-9/11-11-11-11--|
D|--6-------6~--7~--9~--11~--9/11\9-7---7/9--------------x-x-x-x-x-x/-x--x--x--x--|
A|--6-(x16)-x---x---x----x---x/-x\x-7---7/9--------------7-7-7-7-7-7/-9--9--9--9--|
E|--4-------4~--5~--7~---9~--7/-9\7-5---5/7---pick slide--------------------------|

e|-------------------------------------------------------------------------------------|
B|-------------------------------------------------------------------------------------|
G|-------------------------------------------------------------------------------------|
D|--11-11-11-11-13-13-13-13-13-13-13-13-13/14-13-11\9-9-9-9-9-9-9-9-9-9-9-9-9-9-9-9-9--|
A|---x--x--x--x--x--x--x--x--x--x--x--x-x-/-x--x--x\x-x-x-x-x-x-x-x-x-x-x-x-x-x-x-x-x--|
E|---9--9--9--9-11-11-11-11-11-11-11-11-11/12-11--9\7-7-7-7-7-7-7-7-7-7-7-7-7-7-7-7-7--|

e|------------------------------------------------------|
B|------------------------------------------------------|
G|--11-------9------8------6-6-6-6-6-6-6-6-6-6----------|
D|--x--(x16)-x-(x8)-x-(x8)-x-x-x-x-x-x-x-x-x-x-7--------|
A|--9--------7------6------4-4-4-4-4-4-4-4-4-4-7-(x16)--|
E|---------------------------------------------5--------|

e|------------------------------------------------------|
B|------------------------------------------------------|
G|----------6-6-6-6-6-6-6-6-6-9-9-9-13-13-13-13/14-13\--|
D|--9-------x-x-x-x-x-x-x-x-x-x-x-x--x--x--x--x--x--x\--|
A|--9-(x16)-4-4-4-4-4-4-4-4-4-x-x-x-11-11-11-11/12-11\--|
E|--7-------------------------9-9-9---------------------|

Verse 2:

e|----------------------------------------------------------|
B|----------------------------------------------------------|
G|--6-------------------------------------------------------|
D|--6-(x16)-7-------9---------------------------------------|
A|--4-------7-(x16)-9-(x16)-6-6-6~--6-6~--6-6~--6-6~--6-6~--|
E|----------5-------7-------4-4-4~--4-4~--4-4~--4-4~--4-4~--|
. . . . . .

e|-----------------------------------|
B|-----------------------------------|
G|--6--------------------------------|
D|--6-(x16)-7-------9-------6--------|
A|--4-------7-(x16)-9-(x16)-6-(x16)--|
E|----------5-------7-------4--------|

Bridge:

e|------------------------------------------|
B|------------------------------------------|
G|------------------------------------------|
D|---------6-6-6-6-6-6-6-6-7-7-7-7-7-7-7-7--|
A|--(Wait)-6-6-6-6-6-6-6-6-7-7-7-7-7-7-7-7--|
E|---------4-4-4-4-4-4-4-4-5-5-5-5-5-5-5-5--|

e|---------------------------------------------|
B|---------------------------------------------|
G|--6------8------9------4------8------9-------|
D|--x-(x8)-x-(x4)-x-(x4)-x-(x8)-x-(x4)-x-(x4)--|
A|--4------6------7------2------6------7-------|
E|---------------------------------------------|

e|-------------------------------------|
B|-------------------------------------|
G|----------9~-11~-9~-11~-11/13-13-9~--|
D|--6-6-6~--x---x--x---x---x/-x--x-x---|
A|--6-6-6~--7~--9~-7~--9~--9/11-11-7~--|
E|--4-4-4~-----------------------------|
. .
e|-------------------------------------------------------------|
B|-------------------------------------------------------------|
G|--9~---9~---4~---9~-11~--9~---9~-----------------------------|
D|--x----x----4~---x---x---x----x------------------------------|
A|--7~---7~---2~---7~--9~--7~---7~---6-6-6-6-6-6-6-------------|
E|-----------------------------------4-4-4-4-4-4-4-pick slide--|
. . . . . . .

Outro:

e|------------------------------------------------|
B|------------------------------------------------|
G|--9-------6------8------9------13------11-------|
D|--x-(x32)-x-(x8)-x-(x4)-x-(x4)--x-(x8)--x-(x8)--|
A|--7-------4------6------7------11-------9-------|
E|------------------------------------------------|

e|-------------------------------------------------------------------------------|
B|-------------------------------------------------------------------------------|
G|--9-9-9-9-9-9-9-9-11-11-11-11-13-13-13-13-14-14-14-14-14-14-14/16-16-14-14-14--|
D|--x-x-x-x-x-x-x-x--x--x--x--x--x--x--x--x--x--x--x--x--x--x--x/-x--x--x--x--x--|
A|--7-7-7-7-7-7-7-7--9--9--9--9-11-11-11-11-12-12-12-12-12-12-12/14-14-12-12-12--|
E|-------------------------------------------------------------------------------|

e|---------------------------------------------|
B|---------------------------------------------|
G|--13-13-13-13-13-13-13-13-13/14-14-13-13-13--|
D|---x--x--x--x--x--x--x--x--x/-x--x--x--x--x--|
A|--11-11-11-11-11-11-11-11-11/12-12-11-11-11--|
E|---------------------------------------------|

e|---------------------------------------------------------|
B|---------------------------------------------------------|
G|--11-11-11-11-11-11-11-11-11-11-11-11-11-11-11-11-11-11--|
D|---x--x--x--x--x--x--x--x--x--x--x--x--x--x--x--x--x--x--|
A|---9--9--9--9--9--9--9--9--9--9--9--9--9--9--9--9--9--9--|
E|---------------------------------------------------------|

(Repeat outro)

Outro 2:

e|------------------------------------------|
B|------------------------------------------|
G|--9---------------------------------------|
D|--9-(x16)-7-------8-------9------9-9-9-9--|
A|--7-------7-(x16)-x-(x16)-9-(x8)-9-9-9-9--|
E|----------5-------6-------7------7-7-7-7--|
. . .

e|-------------------------------------------------------------------------------|
B|-------------------------------------------------------------------------------|
G|--9-9-9-9-9-9-9-9-11-11-11-11-13-13-13-13-14-14-14-14-14-14-14/16-16-14-14-14--|
D|--x-x-x-x-x-x-x-x--x--x--x--x--x--x--x--x--x--x--x--x--x--x--x/-x--x--x--x--x--|
A|--7-7-7-7-7-7-7-7--9--9--9--9-11-11-11-11-12-12-12-12-12-12-12/14-14-12-12-12--|
E|-------------------------------------------------------------------------------|

e|---------------------------------------------|
B|---------------------------------------------|
G|--13-13-13-13-13-13-13-13-13/14-14-13-13-13--|
D|---x--x--x--x--x--x--x--x--x/-x--x--x--x--x--|
A|--11-11-11-11-11-11-11-11-11/12-12-11-11-11--|
E|---------------------------------------------|

e|---------------------------------------------------------|
B|---------------------------------------------------------|
G|--11-11-11-11-11-11-11-11-11-11-11-11-11-11-11-11-11-11--|
D|---x--x--x--x--x--x--x--x--x--x--x--x--x--x--x--x--x--x--|
A|---9--9--9--9--9--9--9--9--9--9--9--9--9--9--9--9--9--9--|
E|---------------------------------------------------------|

e|------------------------------|
B|------------------------------|
G|--6-6-6-6-6-6-6-6-6-9-9-9-9\--|
D|--x-x-x-x-x-x-x-x-x-x-x-x-x\--|
A|--4-4-4-4-4-4-4-4-4-x-x-x-x\--|
E|--------------------9-9-9-9\--|
Guitar Tab Creator is intended to store guitar tab created through the tool. It currently does not support in-line text editing. Any text you place in here will be lost. If you need to comment on your tab, please use the "Tab Notes" section located below.