All Signs Point to Lauderdale

My first tab... awesum song!!!

(h) Hammer On (/) Slide Up (\) Slide Down (.) Palm Mute

Drop C tuning

--------------------------------------------------------------------------------

INTRO

E|-------------------------------------------------------------------|
B|-------------------------------------------------------------------|
G|-----------55555555----------------------------55555555------------|
D|--33333333-55555555-77777777\55555555\33333333-55555555-55-555-55~-|
A|--33333333-33333333-77777777\55555555\33333333-33333333-55-555-55~-|
E|--33333333----------77777777\55555555\33333333----------55-555-55~-|
........ ........ ........ ........ ........ ........ .. ... .

CHORUS

E|--------------------------------------------|
B|--------------------------------------------|
G|--7/9\7\55-5-5555-55-7/9\7\55-5-555/12-1212-|
D|--x/x\x\xx-x-xxxx-xx-x/x\x\xx-x-xxx/x--x-x--|
A|--5/7\5\33-3-3333-33-5/7\5\33-3-333/10-1010-|
E|--------------------------------------------|

E|--------------------------------------------------|
B|--------------------------------------------------|
G|--7/9\7\55-5-5555-55-7/9\7\51212-101010-999-77777-|
D|--x/x\x\xx-x-xxxx-xx-x/x\x\xx-x--x-x-x--xxx-xxxxx-|
A|--5/7\5\33-3-3333-33-5/7\5\31010-8-8-8--777-55555-|
E|--------------------------------------------------|

VERSE

E|---------------------3--------------------------3-------|
B|--------------------------------------------------------|
G|---------------5-4-5---5-4-5-22222~-2~-2~-5-4-5---5-4-5-|
D|--33333~-3~-3~---------------22222~-2~-2~---------------|
A|--33333~-3~-3~---------------00000~-0~-0~---------------|
E|--33333~-3~-3~------------------------------------------|
.... ....

E|---------------------3---------------------------------|
B|-------------------------------------------------------|
G|---------------5-4-5---5-4-5-44444~-4~-4~--------------|
D|--33333~-3~-3~---------------44444~-4~-4~-5557-7-------|
A|--33333~-3~-3~---------------22222~-2~-2~-555x-x-------|
E|--33333~-3~-3~----------------------------5555-5-------|
.... .... ...

PRECHORUS

E|--------------------------------------------------|
B|--------------------------------------------------|
G|--6/121212-6/121212-7/9\7\5-6/121212-7777-7/9\7\5-|
D|--x/x-x-x--x/x-x-x--x/x\x\x-x/x-x-x--xxxx-x/x\x\x-|
A|--4/101010-4/101010-5/7\5\3-4/101010-5555-5/7\5\3-|
E|--------------------------------------------------|

E|------------------------------------------|
B|------------------------------------------|
G|--6/121212-6/121212-7/9\7\5-6/121212-7~7~-|
D|--x/x-x-x--x/x-x-x--x/x\x\x-x/x-x-x--x-x--|
A|--4/101010-4/101010-5/7\5\3-4/101010-5~5~-|
E|------------------------------------------|

(Repeat Chorus)

(Repeat Verse)

(Repeat Prechorus)

INTRO VARIATION

E|------------------------------------------------------------------------------|
B|------------------------------------------------------------------------------|
G|-----------5-555555----------------------------5-555555-----------------------|
D|--3-333333-5-555555-7-777777\5-555555\3-333333-5-555555-1212\101010\999\77777-|
A|--3-333333-3-333333-7-777777\5-555555\3-333333-3-333333-x-x-\x-x-x-\xxx\xxxxx-|
E|--3-333333----------7-777777\5-555555\3-333333----------1010\8-8-8-\777\55555-|

BRIDGE

E|------------------------------------------------------------------------|
B|------------------------------------------------------------------------|
G|------------------------------------------------------------------------|
D|--7~77777777777777\5~55555555~555555\3~333333333333~-33~~33333333333333-|
A|--7~77777777777777\5~55555555~555555\3~333333333333~-33~~33333333333333-|
E|--7~77777777777777\5~55555555~555555\3~333333333333~-33~~33333333333333-|
.............. ....... ...... ........... ..............

E|-----------------------------------------------------------------|
B|-----------------------------------------------------------------|
G|-----------------------------------------------------------------|
D|--77777~7---7-77777\55555~5---5-55555\33333~3---3-333333~~~~~~~~-|
A|--77777~7---7-77777\55555~5---5-55555\33333~3---3-333333~~~~~~~~-|
E|--77777~7---7-77777\55555~5---5-55555\33333~3---3-333333~~~~~~~~-|
.... . . ..... .... . . ..... .... . . .....

E|-------------------------------------------------|
B|-------------------------------------------------|
G|--------------12-------12----12-------12----9h10-|
D|--10-10-10-10----10-10----10----10-10----10------| (x4)
A|-------------------------------------------------|
E|-------------------------------------------------|

CHORUS VARIATION

E|-----------------------------------------------------|
B|-----------------------------------------------------|
G|--7-77-777755-5-5555-55-7/9\7\51212-101010-999-77777-|
D|--x-xx-xxxxxx-x-xxxx-xx-x/x\x\xx-x--x-x-x--xxx-xxxxx-|
A|--5-55-555533-3-3333-33-5/7\5\31010-8-8-8--777-55555-|
E|-----------------------------------------------------|

(Repeat Intro Variation)

OUTRO

E|--------------------------------------------------------|
B|--------------------------------------------------------|
G|--------------------------------------------------------|
D|--33333~-3~3~---33333~-3~3~---33333~-3~3~---33333~-3~3~-|
A|--33333~-3~3~---33333~-3~3~---33333~-3~3~---33333~-3~3~-|
E|--33333~-3~3~---33333~-3~3~---33333~-3~3~---33333~-3~3~-|
.... .... .... ....
Guitar Tab Creator is intended to store guitar tab created through the tool. It currently does not support in-line text editing. Any text you place in here will be lost. If you need to comment on your tab, please use the "Tab Notes" section located below.