Guitar Class

(/) Slide Up  (\) Slide Down  (h) Hammer On  (p) Pull Off  (b) Bend (r) Release (v) Vibrato


E|--3--3--3--3--5--3--2--0--3--2--2--2--2--3--2--0-----0--2--0--------------------2/3--2--2--
B|--------------------------------------------------3-----------3--0-------------------------
G|--------------------------------------------------------------------2--0--2--0-------------
D|-------------------------------------------------------------------------------------------
A|-------------------------------------------------------------------------------------------
E|-------------------------------------------------------------------------------------------



E|--3--3--3--3--5--3--2--5--7b8--7--7--8--10--12b14--12--12--10b12--10--10--8b10--8--8--
B|--------------------------------------------------------------------------------------
G|--------------------------------------------------------------------------------------
D|--------------------------------------------------------------------------------------
A|--------------------------------------------------------------------------------------
E|--------------------------------------------------------------------------------------



E|--7b8--7--7--7/8--5--7/8--3--
B|-----------------------------
G|-----------------------------
D|-----------------------------
A|-----------------------------
E|-----------------------------
http://www.guitartabcreator.com
Guitar Tab Creator is intended to store guitar tab created through the tool. It currently does not support in-line text editing. Any text you place in here will be lost. If you need to comment on your tab, please use the "Tab Notes" section located below.