Blues_Deluxe_Part_1_att_1

(/) Slide Up  (\) Slide Down  (h) Hammer On  (p) Pull Off  (b) Bend (r) Release (v) Vibrato
E|------------------8v--|--11b12--8----------------------|--8--|----------------|--
B|-----------8--10------|------------8-------------------|--8--|------8/10--8v--|--
G|------8/9-------------|---------------10--8/9----------|-----|------8/10--8v--|--
D|--10------------------|------------------------10--8v--|-----|--10------------|--
A|----------------------|--------------------------------|-----|----------------|--
E|----------------------|--------------------------------|-----|----------------|--



E|---------------------------------------------------|----------------------|--
B|----------16--18b20--18b20--18b20--18b20--16-------|--------------16v--17\|--
G|--17--17--------------------------------------17v--|--17------17-------17\|--
D|---------------------------------------------------|------17--------------|--
A|---------------------------------------------------|----------------------|--
E|---------------------------------------------------|----------------------|--
http://www.guitartabcreator.com
Guitar Tab Creator is intended to store guitar tab created through the tool. It currently does not support in-line text editing. Any text you place in here will be lost. If you need to comment on your tab, please use the "Tab Notes" section located below.