Neh

Tuning Standard 

G|---------------------------------------------------------------------------------------------------
D|---------------------------------------------------------------------------------------------------
A|--555555----------------------555555---------------------555555-----------------------555555-------
E|---------66666-555555-333-666--------66666-55555-333-666--------666666-555555-333-666--------666666

|--------|----------------------------------------------------------------------------------|
|--------|----------------------------------------------------------------------------------|
|--------|------5555-----------------5555----------------5555----------------55555----------|
|-333-666|-3333-------5555-6666-3333------5555-6666-3333------5555-6666-3333-------5555-6666|

|---------------------------------------------------------------------------------------------------
|----------------5-6-5---3-5----------------5-6-5---3-------------------5-6-5---3-5-----------------
|3-3-3-3-6-6-6-6-------6----3-3-3-3-6-6-6-6-------6---6-3-3-3-3-6-6-6-6-------6-----3-3-3-3-6-6-6-6-
|---------------------------------------------------------------------------------------------------

|--------------|
|-5-6-5---3----|
|-------6---6-3|
|--------------|
Guitar Tab Creator is intended to store guitar tab created through the tool. It currently does not support in-line text editing. Any text you place in here will be lost. If you need to comment on your tab, please use the "Tab Notes" section located below.