Laa

G|----------------------------------------------------------------|
D|----------------------------------------------------------------|
A|----------------------------------------------------------------|
E|-5-5-5-5-5-5-5-5-3-3-3-3-3-3-3-3-0-0-0-0-0-0-0-0-7-7-7-7-8-8-8-8| x4

|--------------------------------------|
|--------------------------------------|
|--------------------------------------|
|-5-5-5-0-3-3-3-0-7-7-7-0-8-8-0-10-10-0| x4

|--------------------------------------------------------------------|
|--------------------------------------------------------------------|
|-7-7-7-7-7-7-7-7-5-5-5-5-5-5-5-5-0-0-0-0-0-0-0-0--------------------|
|-------------------------------------------------8-8-8-8-10-10-10-10| x2

|-----------------------------------------------------------------|
|-----------------------------------------------------------------|
|-----------------------------------------------------------------|
|-7-7-7-7-7-7-7-7-5-5-5-5-5-5-5-5-0-0-0-0-0-0-0-0-3-3-3-3-6-6-6-6-| x2

|----------------------------------------------------------------|
|----------------------------------------------------------------|
|----------------------------------------------------------------|
|-5-5-5-5-5-5-5-5-3-3-3-3-3-3-3-3-0-0-0-0-0-0-0-0-7-7-7-7-8-8-8-8| x4

|-------------------------------------------------------------------------------------------------|
|-------------------------------------------------------------------------------------------------|
|-7-7-7-7-7-7-7-7-7-7-7-7-7-7-7-7-5-5-5-5-5-5-5-5-5-5-5-5-5-5-5-5-3-3-3-3-3-3-3-3-3-3-3-3-3-3-3-3-|
|-------------------------------------------------------------------------------------------------|

|---------------------------------|
|---------------------------------|
|-0-0-0-0-0-0-0-0-6-6-6-6-6-6-6-6-|
|---------------------------------| x2

|--------------|
|--------------|
|--------------|
|-5--3--0--7-8-| x2

|--------------------------------------|
|--------------------------------------|
|--------------------------------------|
|-5-5-5-0-3-3-3-0-7-7-7-0-8-8-0-10-10-0| x4

Guitar Tab Creator is intended to store guitar tab created through the tool. It currently does not support in-line text editing. Any text you place in here will be lost. If you need to comment on your tab, please use the "Tab Notes" section located below.