Hurp

Tuning- Drop D

G|---------------------------------------------------------------------------------------------
D|---------------------------------------------------------------------------------------------
A|--------------------------------------------------------5-3----------------------------------
D|0-0-0-0-0-0-0-4-0-0-0-0-0-0-0-4-0-0-0-0-0-0-0-4-0-0-0-0-----3-0-0-0-0-0-0-0-4-0-0-0-0-0-0-0-4

|----------------------------------------------------------------------------------------------
|----------------------------------------------------------------------------------------------
|------------------------5-3-----------------------------------------------------------5-3-----
|0-0-0-0-0-0-0-4-0-0-0-0-----3-0-0-0-0-0-0-0-4-0-0-0-0-0-0-0-4-0-0-0-0-0-0-0-4-0-0-0-0-----3-0-0

|----------------------------------------------------------|-----------------------------------
|----------------------------------------------------------|-----------------------------------
|-----------------------------------------------------5-3--|-1-1-1-1-1-1-1-1-1-1-1-1-1-1-1-1/5-
|-0-0-0-0-0-4-0-0-0-0-0-0-0-4-0-0-0-0-0-0-0-4-0-0-0-0-----3|-----------------------------------

|----------------------------------------------------------------------------------------------
|-----------------------------------------------2-2-2-2-2-2-2-2-0-0-0-0-0-0-0-0-0-0-0-0-0-0-0-0
|-5-5-5-5-5-5-5-5-5-5-5-5-5-5-5-0-0-0-0-0-0-0-0------------------------------------------------
|----------------------------------------------------------------------------------------------

|----------------------------------------------------------------------------------------------
|---------------------------------------------------------------------------------2-2-2-2-2-2-2
|-0-1-1-1-1-1-1-1-1-1-1-1-1-1-1-1-1/5-5-5-5-5-5-5-5-5-5-5-5-5-5-5-5-0-0-0-0-0-0-0-0------------
|----------------------------------------------------------------------------------------------

|-------------------------------------|--------------------------------------------------------
|-2-0-0-0-0-0-0-0-0-0-0-0-0-0-0-0-0---|--------------------------------------------------------
|-----------------------------------0-|-------------------------2-3-4-3------------------------
|-------------------------------------|-3-3-3-3-3-3-3-3-3-3-3-3--------3-3-3-3-3-3-3-3-3-3-3-3-

|-------------------------------------------------------------------------|--------------------
|-------------------------------------------------------------------------|--------------------
|-2-3-4-3-------------------------2-3-4-3-------------------------2-3-4-3-|
|---------3-3-3-3-3-3-3-3-3-3-3-3---------3-3-3-3-3-3-3-3-3-3-3-3---------|-------------------
Guitar Tab Creator is intended to store guitar tab created through the tool. It currently does not support in-line text editing. Any text you place in here will be lost. If you need to comment on your tab, please use the "Tab Notes" section located below.