Hmph

G|--------------------------------------------------------------------------------------------------|
D|--------------------------------------------------------------------------------------------------|
A|--------------------------------------------------------------------------------------------------|
E|--5-5-5-2-2-2-3-3-3-3-3-3-3-2-0-0-5-5-5-2-2-2-3-3-3-3-3-3-3-2-0-0-5-5-5-2-2-2-3-3-3-3-3-3-3-2-0-0-|

|----------------------------------|
|----------------------------------|
|----------------------------------|
|--5-5-5-2-2-2-3-3-3-3-3-3-3-2-0-0-|

|
|
|-------------------------9-9-9-9-9-9-7-7-7-7-0-0-0-0
|-3-3-3-3-3-3-0-0-0-0-0-0----------------------------
Guitar Tab Creator is intended to store guitar tab created through the tool. It currently does not support in-line text editing. Any text you place in here will be lost. If you need to comment on your tab, please use the "Tab Notes" section located below.