True Story

(/) Slide Up  (\) Slide Down  (h) Hammer On  (p) Pull Off  (b) Bend (r) Release (v) Vibrato

E|------------------------------------------------------
B|--------7-----------7-----------7-----------7---------
G|-----6-----6-----6-----6-----6-----6-----6-----6------
D|--4---------------------------------------------------
A|--------------5---------------------------------------
E|--------------------------6-----------6---------------



E|------------------------------------------------------
B|--------7-----------7-----------7-----------7---------
G|-----6-----6-----6-----6-----6-----6-----6-----6------
D|------------------------------------------------------
A|--5-----------5---------------------------------------
E|--------------------------6-----------6---------------



E|-------------------------------------------------------------------
B|-7-7-7-7-7-7-7-7--7-7-7-7-7-7-7-7--7-7-7-7-7-7-7-7-7-7-7-7-7-7-7-7-
G|-6-6-6-6-6-6-6-6--6-6-6-6-6-6-6-6--6-6-6-6-6-6-6-6-6-6-6-6-6-6-6-6-
D|-4-4-4-4-4-4-4-4--4-4-4-4-4-4-4-4--4-4-4-4-4-4-4-4-4-4-4-4-4-4-4-4-
A|------------------5-5-5-5-5-5-5-5--x-x-x-x-x-x-x-x-x-x-x-x-x-x-x-x-
E|-----------------------------------6-6-6-6-6-6-6-6-6-6-6-6-6-6-6-6-
http://www.guitartabcreator.com
Guitar Tab Creator is intended to store guitar tab created through the tool. It currently does not support in-line text editing. Any text you place in here will be lost. If you need to comment on your tab, please use the "Tab Notes" section located below.