WIP

(/) Slide Up  (\) Slide Down  (h) Hammer On  (p) Pull Off  (b) Bend (r) Release (v) Vibrato


E|----------------------------------------------------------------------------------------
B|---------------------------------1-------------------------------------------3----------
G|-----------2----------2---------------2----------------2----------2---------------2-----
D|-----3----------3----------3-------------3-------2----------2----------2-------------2--
A|--1-----1----------1----------1---------------3-----3----------3----------3-------------
E|----------------------------------------------------------------------------------------



E|---------------------------------1-------------------------------------------1----------
B|--------------------------------------3-------------------------------------------3-----
G|-----2-----2----------2------------------2-------2-----2----------2------------------2--
D|--------0-------0----------0------------------------0-------0----------0----------------
A|----------------------------------------------------------------------------------------
E|--0----------------0----------0---------------0----------------0----------0-------------
http://www.guitartabcreator.com
Guitar Tab Creator is intended to store guitar tab created through the tool. It currently does not support in-line text editing. Any text you place in here will be lost. If you need to comment on your tab, please use the "Tab Notes" section located below.