moooo

(/) Slide Up  (\) Slide Down  (h) Hammer On  (p) Pull Off  (b) Bend (r) Release (v) Vibrato


E|--8-------1--------3----------5----------8---
B|--8-------1--------3----------5----------8---
G|--10------3--------5----------7----------10--
D|--10------3--------5----------7----------10--
A|--8-------1--------3----------5----------8---
E|---------------------------------------------



E|-----------------1-----------------------------------------------3-----------------
B|--------1-----------1-----1--------1--------1-----------3-----------3-----3--------
G|-----------3-----------3-----3--------3--------3-----------5-----------5-----5-----
D|-----3--------3-----------------3--------3-----------5--------------------------5--
A|--1-----------------------------------------------3-----------3--------------------
E|-----------------------------------------------------------------------------------



E|--------------------------------6--------------------------------
B|--3--------3-----------6-----------6-----6--------6--------6-----
G|-----5--------5-----------7-----------7-----7--------7--------7--
D|--------5-----------7--------7-----------------7--------7--------
A|-----------------5-----------------------------------------------
E|-----------------------------------------------------------------



E|-----------------5-----------------------3--------
B|--------6-----------6-----------3-----------3-----
G|-----------7-----------7-----------5-----------5--
D|-----7--------7--------------5--------------------
A|--5-----------------------3-----------3-----------
E|--------------------------------------------------



E|-----------------5--------------------------------8p5-----------------8p5-----------------
B|--------6-----------6-----6--------6--------6----------6p5-----------------6p5-------6p5--
G|-----------7-----------7-----7--------7--------7------------7p5-----------------7p5-------
D|-----7--------7-----------------7--------7-----------------------7p5----------------------
A|--5---------------------------------------------------------------------------------------
E|------------------------------------------------------------------------------------------



E|-----------------1-----------------------------------------------3--------------------------
B|--------1-----------1-----1--------1--------1-----------3-----------3-----3--------3--------
G|-----------3-----------3-----3--------3--------3-----------5-----------5-----5--------5-----
D|-----3--------3-----------------3--------3-----------5--------5-----------------5--------5--
A|--1-----------------------------------------------3-----------------------------------------
E|--------------------------------------------------------------------------------------------



E|-----------------5--------------------------------5------3-----
B|--------5-----------5-----5--------5--------5-----5------3-----
G|-----------7-----------7-----7--------7--------7--7------5-----
D|-----7--------7-----------------7--------7--------7------5-----
A|--5-----------------------------------------------5------3-----
E|---------------------------------------------------------------



E|--
B|--
G|--
D|--
A|--
E|--
http://www.guitartabcreator.com
Guitar Tab Creator is intended to store guitar tab created through the tool. It currently does not support in-line text editing. Any text you place in here will be lost. If you need to comment on your tab, please use the "Tab Notes" section located below.